  0
SECTION
  2
HEADER
  9
$ACADVER
  1
AC1021
  9
$ACADMAINTVER
 70
    25
  9
$DWGCODEPAGE
  3
ANSI_1252
  9
$LASTSAVEDBY
  1
Mitch
  9
$INSBASE
 10
0.0
 20
0.0
 30
0.0
  9
$EXTMIN
 10
-38.0999999999577
 20
-10.82724609496684
 30
0.0
  9
$EXTMAX
 10
31.91119360920001
 20
10.82724609503372
 30
0.0
  9
$LIMMIN
 10
0.0
 20
0.0
  9
$LIMMAX
 10
420.0
 20
297.0
  9
$ORTHOMODE
 70
     0
  9
$REGENMODE
 70
     1
  9
$FILLMODE
 70
     1
  9
$QTEXTMODE
 70
     0
  9
$MIRRTEXT
 70
     1
  9
$LTSCALE
 40
1.0
  9
$ATTMODE
 70
     1
  9
$TEXTSIZE
 40
3.5
  9
$TRACEWID
 40
1.0
  9
$TEXTSTYLE
  7
STANDARD
  9
$CLAYER
  8
0
  9
$CELTYPE
  6
ByLayer
  9
$CECOLOR
 62
   256
  9
$CELTSCALE
 40
1.0
  9
$DISPSILH
 70
     0
  9
$DIMSCALE
 40
1.0
  9
$DIMASZ
 40
3.302
  9
$DIMEXO
 40
1.27
  9
$DIMDLI
 40
3.75
  9
$DIMRND
 40
0.0
  9
$DIMDLE
 40
0.0
  9
$DIMEXE
 40
3.175
  9
$DIMTP
 40
0.0
  9
$DIMTM
 40
0.0
  9
$DIMTXT
 40
3.5
  9
$DIMCEN
 40
2.5
  9
$DIMTSZ
 40
0.0
  9
$DIMTOL
 70
     0
  9
$DIMLIM
 70
     0
  9
$DIMTIH
 70
     1
  9
$DIMTOH
 70
     1
  9
$DIMSE1
 70
     0
  9
$DIMSE2
 70
     0
  9
$DIMTAD
 70
     1
  9
$DIMZIN
 70
     0
  9
$DIMBLK
  1

  9
$DIMASO
 70
     1
  9
$DIMSHO
 70
     1
  9
$DIMPOST
  1

  9
$DIMAPOST
  1

  9
$DIMALT
 70
     0
  9
$DIMALTD
 70
     3
  9
$DIMALTF
 40
0.0393700787
  9
$DIMLFAC
 40
1.0
  9
$DIMTOFL
 70
     1
  9
$DIMTVP
 40
0.0
  9
$DIMTIX
 70
     0
  9
$DIMSOXD
 70
     0
  9
$DIMSAH
 70
     0
  9
$DIMBLK1
  1

  9
$DIMBLK2
  1

  9
$DIMSTYLE
  2
ISO-25
  9
$DIMCLRD
 70
     0
  9
$DIMCLRE
 70
     0
  9
$DIMCLRT
 70
     0
  9
$DIMTFAC
 40
1.0
  9
$DIMGAP
 40
1.524
  9
$DIMJUST
 70
     0
  9
$DIMSD1
 70
     0
  9
$DIMSD2
 70
     0
  9
$DIMTOLJ
 70
     1
  9
$DIMTZIN
 70
     0
  9
$DIMALTZ
 70
     0
  9
$DIMALTTZ
 70
     0
  9
$DIMUPT
 70
     0
  9
$DIMDEC
 70
     8
  9
$DIMTDEC
 70
     8
  9
$DIMALTU
 70
     2
  9
$DIMALTTD
 70
     2
  9
$DIMTXSTY
  7
STANDARD
  9
$DIMAUNIT
 70
     0
  9
$DIMADEC
 70
     0
  9
$DIMALTRND
 40
0.0
  9
$DIMAZIN
 70
     0
  9
$DIMDSEP
 70
    46
  9
$DIMATFIT
 70
     3
  9
$DIMFRAC
 70
     0
  9
$DIMLDRBLK
  1

  9
$DIMLUNIT
 70
     2
  9
$DIMLWD
 70
    -2
  9
$DIMLWE
 70
    -2
  9
$DIMTMOVE
 70
     2
  9
$DIMFXL
 40
1.0
  9
$DIMFXLON
 70
     0
  9
$DIMJOGANG
 40
0.7853981633974483
  9
$DIMTFILL
 70
     0
  9
$DIMTFILLCLR
 70
     0
  9
$DIMARCSYM
 70
     0
  9
$DIMLTYPE
  6

  9
$DIMLTEX1
  6

  9
$DIMLTEX2
  6

  9
$LUNITS
 70
     2
  9
$LUPREC
 70
     8
  9
$SKETCHINC
 40
1.0
  9
$FILLETRAD
 40
10.0
  9
$AUNITS
 70
     0
  9
$AUPREC
 70
     4
  9
$MENU
  1
.
  9
$ELEVATION
 40
0.0
  9
$PELEVATION
 40
0.0
  9
$THICKNESS
 40
0.0
  9
$LIMCHECK
 70
     0
  9
$CHAMFERA
 40
0.0
  9
$CHAMFERB
 40
0.0
  9
$CHAMFERC
 40
0.0
  9
$CHAMFERD
 40
0.0
  9
$SKPOLY
 70
     0
  9
$TDCREATE
 40
2458606.831958785
  9
$TDUCREATE
 40
2458607.081958785
  9
$TDUPDATE
 40
2458606.83288353
  9
$TDUUPDATE
 40
2458607.08288353
  9
$TDINDWG
 40
0.0006232407
  9
$TDUSRTIMER
 40
0.0006232292
  9
$USRTIMER
 70
     1
  9
$ANGBASE
 50
0.0
  9
$ANGDIR
 70
     0
  9
$PDMODE
 70
     0
  9
$PDSIZE
 40
-1.0
  9
$PLINEWID
 40
0.0
  9
$SPLFRAME
 70
     0
  9
$SPLINETYPE
 70
     6
  9
$SPLINESEGS
 70
     8
  9
$HANDSEED
  5
3D0
  9
$SURFTAB1
 70
     6
  9
$SURFTAB2
 70
     6
  9
$SURFTYPE
 70
     6
  9
$SURFU
 70
     6
  9
$SURFV
 70
     6
  9
$UCSBASE
  2

  9
$UCSNAME
  2

  9
$UCSORG
 10
0.0
 20
0.0
 30
0.0
  9
$UCSXDIR
 10
1.0
 20
0.0
 30
0.0
  9
$UCSYDIR
 10
0.0
 20
1.0
 30
0.0
  9
$UCSORTHOREF
  2

  9
$UCSORTHOVIEW
 70
     0
  9
$UCSORGTOP
 10
0.0
 20
0.0
 30
0.0
  9
$UCSORGBOTTOM
 10
0.0
 20
0.0
 30
0.0
  9
$UCSORGLEFT
 10
0.0
 20
0.0
 30
0.0
  9
$UCSORGRIGHT
 10
0.0
 20
0.0
 30
0.0
  9
$UCSORGFRONT
 10
0.0
 20
0.0
 30
0.0
  9
$UCSORGBACK
 10
0.0
 20
0.0
 30
0.0
  9
$PUCSBASE
  2

  9
$PUCSNAME
  2

  9
$PUCSORG
 10
0.0
 20
0.0
 30
0.0
  9
$PUCSXDIR
 10
1.0
 20
0.0
 30
0.0
  9
$PUCSYDIR
 10
0.0
 20
1.0
 30
0.0
  9
$PUCSORTHOREF
  2

  9
$PUCSORTHOVIEW
 70
     0
  9
$PUCSORGTOP
 10
0.0
 20
0.0
 30
0.0
  9
$PUCSORGBOTTOM
 10
0.0
 20
0.0
 30
0.0
  9
$PUCSORGLEFT
 10
0.0
 20
0.0
 30
0.0
  9
$PUCSORGRIGHT
 10
0.0
 20
0.0
 30
0.0
  9
$PUCSORGFRONT
 10
0.0
 20
0.0
 30
0.0
  9
$PUCSORGBACK
 10
0.0
 20
0.0
 30
0.0
  9
$USERI1
 70
     0
  9
$USERI2
 70
     0
  9
$USERI3
 70
     0
  9
$USERI4
 70
     0
  9
$USERI5
 70
     0
  9
$USERR1
 40
0.0
  9
$USERR2
 40
0.0
  9
$USERR3
 40
0.0
  9
$USERR4
 40
0.0
  9
$USERR5
 40
0.0
  9
$WORLDVIEW
 70
     1
  9
$SHADEDGE
 70
     3
  9
$SHADEDIF
 70
    70
  9
$TILEMODE
 70
     1
  9
$MAXACTVP
 70
    64
  9
$PINSBASE
 10
0.0
 20
0.0
 30
0.0
  9
$PLIMCHECK
 70
     0
  9
$PEXTMIN
 10
1.000000000000000E+20
 20
1.000000000000000E+20
 30
1.000000000000000E+20
  9
$PEXTMAX
 10
-1.000000000000000E+20
 20
-1.000000000000000E+20
 30
-1.000000000000000E+20
  9
$PLIMMIN
 10
0.0
 20
0.0
  9
$PLIMMAX
 10
0.0
 20
0.0
  9
$UNITMODE
 70
     0
  9
$VISRETAIN
 70
     1
  9
$PLINEGEN
 70
     0
  9
$PSLTSCALE
 70
     1
  9
$TREEDEPTH
 70
  3020
  9
$CMLSTYLE
  2
Standard
  9
$CMLJUST
 70
     0
  9
$CMLSCALE
 40
1.0
  9
$PROXYGRAPHICS
 70
     1
  9
$MEASUREMENT
 70
     0
  9
$CELWEIGHT
370
    -1
  9
$ENDCAPS
280
     0
  9
$JOINSTYLE
280
     0
  9
$LWDISPLAY
290
     0
  9
$INSUNITS
 70
     0
  9
$HYPERLINKBASE
  1

  9
$STYLESHEET
  1

  9
$XEDIT
290
     1
  9
$CEPSNTYPE
380
     0
  9
$PSTYLEMODE
290
     1
  9
$FINGERPRINTGUID
  2
{95A06074-3B9D-4A1F-A6B2-E321C12F65B6}
  9
$VERSIONGUID
  2
{FAEB1C32-E019-11D5-929B-00C0DF256EC4}
  9
$EXTNAMES
290
     1
  9
$PSVPSCALE
 40
0.0
  9
$OLESTARTUP
290
     0
  9
$SORTENTS
280
   127
  9
$INDEXCTL
280
     0
  9
$HIDETEXT
280
     1
  9
$XCLIPFRAME
290
     0
  9
$HALOGAP
280
     0
  9
$OBSCOLOR
 70
   257
  9
$OBSLTYPE
280
     0
  9
$INTERSECTIONDISPLAY
280
     0
  9
$INTERSECTIONCOLOR
 70
   257
  9
$DIMASSOC
280
     2
  9
$PROJECTNAME
  1

  9
$CAMERADISPLAY
290
     0
  9
$LENSLENGTH
 40
50.0
  9
$CAMERAHEIGHT
 40
0.0
  9
$STEPSPERSEC
 40
2.0
  9
$STEPSIZE
 40
6.0
  9
$3DDWFPREC
 40
2.0
  9
$PSOLWIDTH
 40
0.25
  9
$PSOLHEIGHT
 40
4.0
  9
$LOFTANG1
 40
1.570796326794897
  9
$LOFTANG2
 40
1.570796326794897
  9
$LOFTMAG1
 40
0.0
  9
$LOFTMAG2
 40
0.0
  9
$LOFTPARAM
 70
     7
  9
$LOFTNORMALS
280
     1
  9
$LATITUDE
 40
37.795
  9
$LONGITUDE
 40
-122.394
  9
$NORTHDIRECTION
 40
0.0
  9
$TIMEZONE
 70
 -8000
  9
$LIGHTGLYPHDISPLAY
280
     1
  9
$TILEMODELIGHTSYNCH
280
     1
  9
$SOLIDHIST
280
     0
  9
$SHOWHIST
280
     1
  9
$DWFFRAME
280
     2
  9
$DGNFRAME
280
     2
  9
$REALWORLDSCALE
290
     1
  9
$INTERFERECOLOR
 62
   256
  9
$CSHADOW
280
     0
  9
$SHADOWPLANELOCATION
 40
0.0
  0
ENDSEC
  0
SECTION
  2
CLASSES
  0
CLASS
  1
ACDBDICTIONARYWDFLT
  2
AcDbDictionaryWithDefault
  3
ObjectDBX Classes
 90
        0
 91
        5
280
     0
281
     0
  0
CLASS
  1
MATERIAL
  2
AcDbMaterial
  3
ObjectDBX Classes
 90
     1153
 91
        5
280
     0
281
     0
  0
CLASS
  1
SCALE
  2
AcDbScale
  3
ObjectDBX Classes
 90
     1153
 91
        5
280
     0
281
     0
  0
CLASS
  1
VISUALSTYLE
  2
AcDbVisualStyle
  3
ObjectDBX Classes
 90
     4095
 91
        5
280
     0
281
     0
  0
CLASS
  1
TABLESTYLE
  2
AcDbTableStyle
  3
ObjectDBX Classes
 90
     4095
 91
        5
280
     0
281
     0
  0
CLASS
  1
MLEADERSTYLE
  2
AcDbMLeaderStyle
  3
ACDB_MLEADERSTYLE_CLASS
 90
     4095
 91
        5
280
     0
281
     0
  0
CLASS
  1
DICTIONARYVAR
  2
AcDbDictionaryVar
  3
ObjectDBX Classes
 90
        0
 91
        5
280
     0
281
     0
  0
CLASS
  1
CELLSTYLEMAP
  2
AcDbCellStyleMap
  3
ObjectDBX Classes
 90
     1152
 91
        5
280
     0
281
     0
  0
ENDSEC
  0
SECTION
  2
TABLES
  0
TABLE
  2
VPORT
  5
35C
330
0
100
AcDbSymbolTable
 70
     1
  0
VPORT
  5
373
330
35C
100
AcDbSymbolTableRecord
100
AcDbViewportTableRecord
  2
*ACTIVE
 70
     0
 10
0.0
 20
0.0
 11
1.0
 21
1.0
 12
-0.4050150110734094
 22
-11.57802962954774
 13
0.0
 23
0.0
 14
10.0
 24
10.0
 15
10.0
 25
10.0
 16
0.0
 26
0.0
 36
1.0
 17
0.0
 27
0.0
 37
0.0
 40
64.62909923469506
 41
2.697612732095491
 42
50.0
 43
0.0
 44
0.0
 50
0.0
 51
0.0
 71
    16
 72
   100
 73
     1
 74
     3
 75
     0
 76
     0
 77
     0
 78
     0
281
     0
 65
     0
110
0.0
120
0.0
130
0.0
111
1.0
121
0.0
131
0.0
112
0.0
122
1.0
132
0.0
 79
     0
146
0.0
348
3AC
 60
     3
 61
     5
292
     1
282
     1
141
0.0
142
0.0
 63
   250
  0
ENDTAB
  0
TABLE
  2
LTYPE
  5
359
330
0
100
AcDbSymbolTable
 70
     6
  0
LTYPE
  5
367
330
359
100
AcDbSymbolTableRecord
100
AcDbLinetypeTableRecord
  2
ByBlock
 70
     0
  3

 72
    65
 73
     0
 40
0.0
  0
LTYPE
  5
368
330
359
100
AcDbSymbolTableRecord
100
AcDbLinetypeTableRecord
  2
ByLayer
 70
     0
  3

 72
    65
 73
     0
 40
0.0
  0
LTYPE
  5
369
330
359
100
AcDbSymbolTableRecord
100
AcDbLinetypeTableRecord
  2
CONTINUOUS
 70
     0
  3
Solid line
 72
    65
 73
     0
 40
0.0
  0
LTYPE
  5
375
330
359
100
AcDbSymbolTableRecord
100
AcDbLinetypeTableRecord
  2
HIDDEN
 70
     0
  3
Hidden __ __ __ __ __ __ __ __ __ __ __ __ __ __
 72
    65
 73
     2
 40
1.905
 49
1.27
 74
     0
 49
-0.635
 74
     0
  0
LTYPE
  5
376
330
359
100
AcDbSymbolTableRecord
100
AcDbLinetypeTableRecord
  2
PHANTOM
 70
     0
  3
Phantom ______  __  __  ______  __  __  ______
 72
    65
 73
     6
 40
12.7
 49
6.35
 74
     0
 49
-1.27
 74
     0
 49
1.27
 74
     0
 49
-1.27
 74
     0
 49
1.27
 74
     0
 49
-1.27
 74
     0
  0
LTYPE
  5
377
330
359
100
AcDbSymbolTableRecord
100
AcDbLinetypeTableRecord
  2
CENTER
 70
     0
  3
Center ____ _ ____ _ ____ _ ____ _ ____ _ ____
 72
    65
 73
     4
 40
10.16
 49
6.35
 74
     0
 49
-1.27
 74
     0
 49
1.27
 74
     0
 49
-1.27
 74
     0
  0
LTYPE
  5
378
330
359
100
AcDbSymbolTableRecord
100
AcDbLinetypeTableRecord
  2
CENTERX2
 70
     0
  3
Center (2x) ________  __  ________  __  _____
 72
    65
 73
     4
 40
20.32
 49
12.7
 74
     0
 49
-2.54
 74
     0
 49
2.54
 74
     0
 49
-2.54
 74
     0
  0
LTYPE
  5
379
330
359
100
AcDbSymbolTableRecord
100
AcDbLinetypeTableRecord
  2
DOT2
 70
     0
  3
Dot (.5x) ........................................
 72
    65
 73
     2
 40
0.635
 49
0.0
 74
     0
 49
-0.635
 74
     0
  0
ENDTAB
  0
TABLE
  2
LAYER
  5
356
330
0
100
AcDbSymbolTable
 70
     2
  0
LAYER
  5
364
330
356
100
AcDbSymbolTableRecord
100
AcDbLayerTableRecord
  2
0
 70
     0
 62
     7
  6
CONTINUOUS
370
    -3
390
363
347
37E
  0
LAYER
  5
37F
330
356
100
AcDbSymbolTableRecord
100
AcDbLayerTableRecord
  2
DEFPOINTS
 70
     0
 62
     7
  6
CONTINUOUS
290
     0
370
    -3
390
363
347
37E
  0
ENDTAB
  0
TABLE
  2
STYLE
  5
357
330
0
100
AcDbSymbolTable
 70
     1
  0
STYLE
  5
365
330
357
100
AcDbSymbolTableRecord
100
AcDbTextStyleTableRecord
  2
STANDARD
 70
     0
 40
0.0
 41
1.0
 50
0.0
 71
     0
 42
3.5
  3
txt
  4

  0
ENDTAB
  0
TABLE
  2
VIEW
  5
35A
330
0
100
AcDbSymbolTable
 70
     0
  0
ENDTAB
  0
TABLE
  2
UCS
  5
35B
330
0
100
AcDbSymbolTable
 70
     0
  0
ENDTAB
  0
TABLE
  2
APPID
  5
35D
330
0
100
AcDbSymbolTable
 70
     2
  0
APPID
  5
366
330
35D
100
AcDbSymbolTableRecord
100
AcDbRegAppTableRecord
  2
ACAD
 70
     0
  0
APPID
  5
3C9
330
35D
100
AcDbSymbolTableRecord
100
AcDbRegAppTableRecord
  2
ACAD_MLEADERVER
 70
     0
  0
ENDTAB
  0
TABLE
  2
DIMSTYLE
  5
35E
330
0
100
AcDbSymbolTable
 70
     1
100
AcDbDimStyleTable
  0
DIMSTYLE
105
382
330
35E
100
AcDbSymbolTableRecord
100
AcDbDimStyleTableRecord
  2
ISO-25
 70
     0
 41
2.5
 42
0.625
 43
3.75
 44
1.25
 73
     0
 74
     0
 77
     1
 78
     8
140
2.5
141
2.5
143
0.0393700787
147
0.625
171
     3
172
     1
178
     0
340
365
  0
ENDTAB
  0
TABLE
  2
BLOCK_RECORD
  5
355
330
0
100
AcDbSymbolTable
 70
     0
  0
BLOCK_RECORD
  5
370
330
355
100
AcDbSymbolTableRecord
100
AcDbBlockTableRecord
  2
*Model_Space
340
371
 70
     0
280
     1
281
     0
  0
BLOCK_RECORD
  5
36E
330
355
100
AcDbSymbolTableRecord
100
AcDbBlockTableRecord
  2
*Paper_Space
340
36F
 70
     0
280
     1
281
     0
  0
ENDTAB
  0
ENDSEC
  0
SECTION
  2
BLOCKS
  0
BLOCK
  5
383
330
370
100
AcDbEntity
  8
0
100
AcDbBlockBegin
  2
*Model_Space
 70
     0
 10
0.0
 20
0.0
 30
0.0
  3
*Model_Space
  1

  0
ENDBLK
  5
21
330
370
100
AcDbEntity
  8
0
100
AcDbBlockEnd
  0
BLOCK
  5
384
330
36E
100
AcDbEntity
 67
     1
  8
0
100
AcDbBlockBegin
  2
*Paper_Space
 70
     0
 10
0.0
 20
0.0
 30
0.0
  3
*Paper_Space
  1

  0
ENDBLK
  5
1D
330
36E
100
AcDbEntity
 67
     1
  8
0
100
AcDbBlockEnd
  0
ENDSEC
  0
SECTION
  2
ENTITIES
  0
CIRCLE
  5
16E
330
370
100
AcDbEntity
  8
0
  6
Continuous
 62
     7
100
AcDbCircle
 10
29.4111936092
 20
8.077246095
 30
0.0
 40
0.8750000000000009
  0
LINE
  5
1E4
330
370
100
AcDbEntity
  8
0
  6
Continuous
 62
     7
100
AcDbLine
 10
-19.1420634293
 20
-5.7682675772
 30
0.0
 11
-18.372753905
 21
-5.7682675772
 31
0.0
  0
LINE
  5
1E5
330
370
100
AcDbEntity
  8
0
  6
Continuous
 62
     7
100
AcDbLine
 10
-18.372753905
 20
5.7682675772
 30
0.0
 11
-19.1420634293
 21
5.7682675772
 31
0.0
  0
LINE
  5
1E6
330
370
100
AcDbEntity
  8
0
  6
Continuous
 62
     7
100
AcDbLine
 10
-17.372753905
 20
9.577246095
 30
0.0
 11
-17.372753905
 21
6.7682675772
 31
0.0
  0
LINE
  5
1E7
330
370
100
AcDbEntity
  8
0
  6
Continuous
 62
     7
100
AcDbLine
 10
30.9111936092
 20
10.577246095
 30
0.0
 11
-16.372753905
 21
10.577246095
 31
0.0
  0
LINE
  5
1E8
330
370
100
AcDbEntity
  8
0
  6
Continuous
 62
     7
100
AcDbLine
 10
31.9111936092
 20
-2.585253905
 30
0.0
 11
31.9111936092
 21
9.577246095
 31
0.0
  0
LINE
  5
1E9
330
370
100
AcDbEntity
  8
0
  6
Continuous
 62
     7
100
AcDbLine
 10
11.972246095
 20
-3.585253905
 30
0.0
 11
30.9111936092
 21
-3.585253905
 31
0.0
  0
LINE
  5
1EA
330
370
100
AcDbEntity
  8
0
  6
Continuous
 62
     7
100
AcDbLine
 10
10.972246095
 20
-9.577246095
 30
0.0
 11
10.972246095
 21
-4.585253905
 31
0.0
  0
LINE
  5
1EB
330
370
100
AcDbEntity
  8
0
  6
Continuous
 62
     7
100
AcDbLine
 10
-16.372753905
 20
-10.577246095
 30
0.0
 11
9.972246095
 21
-10.577246095
 31
0.0
  0
LINE
  5
1EC
330
370
100
AcDbEntity
  8
0
  6
Continuous
 62
     7
100
AcDbLine
 10
-17.372753905
 20
-6.7682675772
 30
0.0
 11
-17.372753905
 21
-9.577246095
 31
0.0
  0
LINE
  5
1ED
330
370
100
AcDbEntity
  8
0
  6
Continuous
 62
     7
100
AcDbLine
 10
-28.272753905
 20
-6.9282032303
 30
0.0
 11
-28.272753905
 21
-6.4226162893
 31
0.0
  0
LINE
  5
1EE
330
370
100
AcDbEntity
  8
0
  6
Continuous
 62
     7
100
AcDbLine
 10
-32.5198109162
 20
3.8364557499
 30
0.0
 11
-32.8772943767
 21
4.1939392104
 31
0.0
  0
LINE
  5
1EF
330
370
100
AcDbEntity
  8
0
  6
Continuous
 62
     7
100
AcDbLine
 10
3.4021487337
 20
6.382246095
 30
0.0
 11
2.1871487337
 21
6.382246095
 31
0.0
  0
LINE
  5
1F0
330
370
100
AcDbEntity
  8
0
  6
Continuous
 62
     7
100
AcDbLine
 10
2.1871487337
 20
6.382246095
 30
0.0
 11
2.1871487337
 21
8.416746095
 31
0.0
  0
LINE
  5
1F1
330
370
100
AcDbEntity
  8
0
  6
Continuous
 62
     7
100
AcDbLine
 10
2.1871487337
 20
8.416746095
 30
0.0
 11
0.3946487337
 21
8.416746095
 31
0.0
  0
LINE
  5
1F2
330
370
100
AcDbEntity
  8
0
  6
Continuous
 62
     7
100
AcDbLine
 10
0.3946487337
 20
8.416746095
 30
0.0
 11
0.3946487337
 21
5.5182730241
 31
0.0
  0
LINE
  5
1F3
330
370
100
AcDbEntity
  8
0
  6
Continuous
 62
     7
100
AcDbLine
 10
-0.7942512663
 20
6.382246095
 30
0.0
 11
-1.8605012663
 21
6.382246095
 31
0.0
  0
LINE
  5
1F4
330
370
100
AcDbEntity
  8
0
  6
Continuous
 62
     7
100
AcDbLine
 10
-1.8605012663
 20
6.382246095
 30
0.0
 11
-1.8605012663
 21
4.882246095
 31
0.0
  0
LINE
  5
1F5
330
370
100
AcDbEntity
  8
0
  6
Continuous
 62
     7
100
AcDbLine
 10
-1.8605012663
 20
4.882246095
 30
0.0
 11
-1.8017512663
 21
4.882246095
 31
0.0
  0
LINE
  5
1F6
330
370
100
AcDbEntity
  8
0
  6
Continuous
 62
     7
100
AcDbLine
 10
-1.3017512663
 20
4.382246095
 30
0.0
 11
-1.3017512663
 21
2.767246095
 31
0.0
  0
LINE
  5
1F7
330
370
100
AcDbEntity
  8
0
  6
Continuous
 62
     7
100
AcDbLine
 10
-1.8017512663
 20
2.267246095
 30
0.0
 11
-1.8605012663
 21
2.267246095
 31
0.0
  0
LINE
  5
1F8
330
370
100
AcDbEntity
  8
0
  6
Continuous
 62
     7
100
AcDbLine
 10
-1.8605012663
 20
2.267246095
 30
0.0
 11
-1.8605012663
 21
0.832246095
 31
0.0
  0
LINE
  5
1F9
330
370
100
AcDbEntity
  8
0
  6
Continuous
 62
     7
100
AcDbLine
 10
-1.8605012663
 20
0.832246095
 30
0.0
 11
-0.7942512663
 21
0.832246095
 31
0.0
  0
LINE
  5
1FA
330
370
100
AcDbEntity
  8
0
  6
Continuous
 62
     7
100
AcDbLine
 10
0.3946487337
 20
1.6962191659
 30
0.0
 11
0.3946487337
 21
0.832246095
 31
0.0
  0
LINE
  5
1FB
330
370
100
AcDbEntity
  8
0
  6
Continuous
 62
     7
100
AcDbLine
 10
0.3946487337
 20
0.832246095
 30
0.0
 11
2.1871487337
 21
0.832246095
 31
0.0
  0
LINE
  5
1FC
330
370
100
AcDbEntity
  8
0
  6
Continuous
 62
     7
100
AcDbLine
 10
2.1871487337
 20
0.832246095
 30
0.0
 11
2.1871487337
 21
4.939746095
 31
0.0
  0
LINE
  5
1FD
330
370
100
AcDbEntity
  8
0
  6
Continuous
 62
     7
100
AcDbLine
 10
2.1871487337
 20
4.939746095
 30
0.0
 11
3.2971487337
 21
4.939746095
 31
0.0
  0
LINE
  5
1FE
330
370
100
AcDbEntity
  8
0
  6
Continuous
 62
     7
100
AcDbLine
 10
3.2971487337
 20
4.939746095
 30
0.0
 11
3.2971487337
 21
2.082246095
 31
0.0
  0
LINE
  5
1FF
330
370
100
AcDbEntity
  8
0
  6
Continuous
 62
     7
100
AcDbLine
 10
4.5471487337
 20
0.832246095
 30
0.0
 11
5.6308987337
 21
0.832246095
 31
0.0
  0
LINE
  5
200
330
370
100
AcDbEntity
  8
0
  6
Continuous
 62
     7
100
AcDbLine
 10
5.6308987337
 20
0.832246095
 30
0.0
 11
5.6308987337
 21
2.267246095
 31
0.0
  0
LINE
  5
201
330
370
100
AcDbEntity
  8
0
  6
Continuous
 62
     7
100
AcDbLine
 10
5.6308987337
 20
2.267246095
 30
0.0
 11
5.5721487337
 21
2.267246095
 31
0.0
  0
LINE
  5
202
330
370
100
AcDbEntity
  8
0
  6
Continuous
 62
     7
100
AcDbLine
 10
5.0721487337
 20
2.767246095
 30
0.0
 11
5.0721487337
 21
4.382246095
 31
0.0
  0
LINE
  5
203
330
370
100
AcDbEntity
  8
0
  6
Continuous
 62
     7
100
AcDbLine
 10
5.5721487337
 20
4.882246095
 30
0.0
 11
5.6308987337
 21
4.882246095
 31
0.0
  0
LINE
  5
204
330
370
100
AcDbEntity
  8
0
  6
Continuous
 62
     7
100
AcDbLine
 10
5.6308987337
 20
4.882246095
 30
0.0
 11
5.6308987337
 21
6.382246095
 31
0.0
  0
LINE
  5
205
330
370
100
AcDbEntity
  8
0
  6
Continuous
 62
     7
100
AcDbLine
 10
5.6308987337
 20
6.382246095
 30
0.0
 11
4.5471487337
 21
6.382246095
 31
0.0
  0
LINE
  5
206
330
370
100
AcDbEntity
  8
0
  6
Continuous
 62
     7
100
AcDbLine
 10
3.4021487337
 20
5.6337189258
 30
0.0
 11
3.4021487337
 21
6.382246095
 31
0.0
  0
LINE
  5
207
330
370
100
AcDbEntity
  8
0
  6
Continuous
 62
     7
100
AcDbLine
 10
13.6080487337
 20
0.832246095
 30
0.0
 11
16.1885487337
 21
0.832246095
 31
0.0
  0
LINE
  5
208
330
370
100
AcDbEntity
  8
0
  6
Continuous
 62
     7
100
AcDbLine
 10
16.1885487337
 20
0.832246095
 30
0.0
 11
16.1885487337
 21
0.591696095
 31
0.0
  0
LINE
  5
209
330
370
100
AcDbEntity
  8
0
  6
Continuous
 62
     7
100
AcDbLine
 10
15.8215987337
 20
0.224746095
 30
0.0
 11
12.0935487337
 21
0.224746095
 31
0.0
  0
LINE
  5
20A
330
370
100
AcDbEntity
  8
0
  6
Continuous
 62
     7
100
AcDbLine
 10
12.0935487337
 20
0.224746095
 30
0.0
 11
12.0935487337
 21
-1.260253905
 31
0.0
  0
LINE
  5
20B
330
370
100
AcDbEntity
  8
0
  6
Continuous
 62
     7
100
AcDbLine
 10
12.0935487337
 20
-1.260253905
 30
0.0
 11
16.5935487337
 21
-1.260253905
 31
0.0
  0
LINE
  5
20C
330
370
100
AcDbEntity
  8
0
  6
Continuous
 62
     7
100
AcDbLine
 10
17.8824436092
 20
-0.510253905
 30
0.0
 11
17.8824436092
 21
-1.260253905
 31
0.0
  0
LINE
  5
20D
330
370
100
AcDbEntity
  8
0
  6
Continuous
 62
     7
100
AcDbLine
 10
17.8824436092
 20
-1.260253905
 30
0.0
 11
19.7074436092
 21
-1.260253905
 31
0.0
  0
LINE
  5
20E
330
370
100
AcDbEntity
  8
0
  6
Continuous
 62
     7
100
AcDbLine
 10
19.7074436092
 20
-1.260253905
 30
0.0
 11
19.7074436092
 21
0.832246095
 31
0.0
  0
LINE
  5
20F
330
370
100
AcDbEntity
  8
0
  6
Continuous
 62
     7
100
AcDbLine
 10
19.7074436092
 20
0.832246095
 30
0.0
 11
20.2661936092
 21
0.832246095
 31
0.0
  0
LINE
  5
210
330
370
100
AcDbEntity
  8
0
  6
Continuous
 62
     7
100
AcDbLine
 10
20.2661936092
 20
0.832246095
 30
0.0
 11
20.2661936092
 21
2.267246095
 31
0.0
  0
LINE
  5
211
330
370
100
AcDbEntity
  8
0
  6
Continuous
 62
     7
100
AcDbLine
 10
20.2661936092
 20
2.267246095
 30
0.0
 11
20.2074436092
 21
2.267246095
 31
0.0
  0
LINE
  5
212
330
370
100
AcDbEntity
  8
0
  6
Continuous
 62
     7
100
AcDbLine
 10
19.7074436092
 20
2.767246095
 30
0.0
 11
19.7074436092
 21
4.382246095
 31
0.0
  0
LINE
  5
213
330
370
100
AcDbEntity
  8
0
  6
Continuous
 62
     7
100
AcDbLine
 10
20.2074436092
 20
4.882246095
 30
0.0
 11
20.2661936092
 21
4.882246095
 31
0.0
  0
LINE
  5
214
330
370
100
AcDbEntity
  8
0
  6
Continuous
 62
     7
100
AcDbLine
 10
20.2661936092
 20
4.882246095
 30
0.0
 11
20.2661936092
 21
6.382246095
 31
0.0
  0
LINE
  5
215
330
370
100
AcDbEntity
  8
0
  6
Continuous
 62
     7
100
AcDbLine
 10
20.2661936092
 20
6.382246095
 30
0.0
 11
19.3411936092
 21
6.382246095
 31
0.0
  0
LINE
  5
216
330
370
100
AcDbEntity
  8
0
  6
Continuous
 62
     7
100
AcDbLine
 10
18.0760487337
 20
5.49860458
 30
0.0
 11
18.0760487337
 21
6.382246095
 31
0.0
  0
LINE
  5
217
330
370
100
AcDbEntity
  8
0
  6
Continuous
 62
     7
100
AcDbLine
 10
18.0760487337
 20
6.382246095
 30
0.0
 11
16.1885487337
 21
6.382246095
 31
0.0
  0
LINE
  5
218
330
370
100
AcDbEntity
  8
0
  6
Continuous
 62
     7
100
AcDbLine
 10
16.1885487337
 20
6.382246095
 30
0.0
 11
16.1885487337
 21
2.592246095
 31
0.0
  0
LINE
  5
219
330
370
100
AcDbEntity
  8
0
  6
Continuous
 62
     7
100
AcDbLine
 10
15.8635487337
 20
2.267246095
 30
0.0
 11
14.3060487337
 21
2.267246095
 31
0.0
  0
LINE
  5
21A
330
370
100
AcDbEntity
  8
0
  6
Continuous
 62
     7
100
AcDbLine
 10
13.9810487337
 20
2.592246095
 30
0.0
 11
13.9810487337
 21
6.382246095
 31
0.0
  0
LINE
  5
21B
330
370
100
AcDbEntity
  8
0
  6
Continuous
 62
     7
100
AcDbLine
 10
13.9810487337
 20
6.382246095
 30
0.0
 11
10.9285487337
 21
6.382246095
 31
0.0
  0
LINE
  5
21C
330
370
100
AcDbEntity
  8
0
  6
Continuous
 62
     7
100
AcDbLine
 10
10.9285487337
 20
6.382246095
 30
0.0
 11
10.9285487337
 21
8.416746095
 31
0.0
  0
LINE
  5
21D
330
370
100
AcDbEntity
  8
0
  6
Continuous
 62
     7
100
AcDbLine
 10
10.9285487337
 20
8.416746095
 30
0.0
 11
9.1360487337
 21
8.416746095
 31
0.0
  0
LINE
  5
21E
330
370
100
AcDbEntity
  8
0
  6
Continuous
 62
     7
100
AcDbLine
 10
9.1360487337
 20
8.416746095
 30
0.0
 11
9.1360487337
 21
5.5182730241
 31
0.0
  0
LINE
  5
21F
330
370
100
AcDbEntity
  8
0
  6
Continuous
 62
     7
100
AcDbLine
 10
7.9471487337
 20
6.382246095
 30
0.0
 11
6.8808987337
 21
6.382246095
 31
0.0
  0
LINE
  5
220
330
370
100
AcDbEntity
  8
0
  6
Continuous
 62
     7
100
AcDbLine
 10
6.8808987337
 20
6.382246095
 30
0.0
 11
6.8808987337
 21
4.882246095
 31
0.0
  0
LINE
  5
221
330
370
100
AcDbEntity
  8
0
  6
Continuous
 62
     7
100
AcDbLine
 10
6.8808987337
 20
4.882246095
 30
0.0
 11
6.9396487337
 21
4.882246095
 31
0.0
  0
LINE
  5
222
330
370
100
AcDbEntity
  8
0
  6
Continuous
 62
     7
100
AcDbLine
 10
7.4396487337
 20
4.382246095
 30
0.0
 11
7.4396487337
 21
2.767246095
 31
0.0
  0
LINE
  5
223
330
370
100
AcDbEntity
  8
0
  6
Continuous
 62
     7
100
AcDbLine
 10
6.9396487337
 20
2.267246095
 30
0.0
 11
6.8808987337
 21
2.267246095
 31
0.0
  0
LINE
  5
224
330
370
100
AcDbEntity
  8
0
  6
Continuous
 62
     7
100
AcDbLine
 10
6.8808987337
 20
2.267246095
 30
0.0
 11
6.8808987337
 21
0.832246095
 31
0.0
  0
LINE
  5
225
330
370
100
AcDbEntity
  8
0
  6
Continuous
 62
     7
100
AcDbLine
 10
6.8808987337
 20
0.832246095
 30
0.0
 11
7.9471487337
 21
0.832246095
 31
0.0
  0
LINE
  5
226
330
370
100
AcDbEntity
  8
0
  6
Continuous
 62
     7
100
AcDbLine
 10
9.1360487337
 20
1.6962191659
 30
0.0
 11
9.1360487337
 21
0.832246095
 31
0.0
  0
LINE
  5
227
330
370
100
AcDbEntity
  8
0
  6
Continuous
 62
     7
100
AcDbLine
 10
9.1360487337
 20
0.832246095
 30
0.0
 11
10.9285487337
 21
0.832246095
 31
0.0
  0
LINE
  5
228
330
370
100
AcDbEntity
  8
0
  6
Continuous
 62
     7
100
AcDbLine
 10
10.9285487337
 20
0.832246095
 30
0.0
 11
10.9285487337
 21
4.939746095
 31
0.0
  0
LINE
  5
229
330
370
100
AcDbEntity
  8
0
  6
Continuous
 62
     7
100
AcDbLine
 10
10.9285487337
 20
4.939746095
 30
0.0
 11
12.0935487337
 21
4.939746095
 31
0.0
  0
LINE
  5
22A
330
370
100
AcDbEntity
  8
0
  6
Continuous
 62
     7
100
AcDbLine
 10
12.0935487337
 20
4.939746095
 30
0.0
 11
12.0935487337
 21
2.346746095
 31
0.0
  0
LINE
  5
22B
330
370
100
AcDbEntity
  8
0
  6
Continuous
 62
     7
100
AcDbLine
 10
-28.9144104151
 20
-2.0687309451
 30
0.0
 11
-28.3100912226
 21
-2.6479709711
 31
0.0
  0
LINE
  5
22C
330
370
100
AcDbEntity
  8
0
  6
Continuous
 62
     7
100
AcDbLine
 10
-28.3100912226
 20
-2.6479709711
 30
0.0
 11
-27.9651757497
 21
-3.8577178804
 31
0.0
  0
LINE
  5
22D
330
370
100
AcDbEntity
  8
0
  6
Continuous
 62
     7
100
AcDbLine
 10
-27.9651757497
 20
-3.8577178804
 30
0.0
 11
-27.7771034721
 21
-3.8577178804
 31
0.0
  0
LINE
  5
22E
330
370
100
AcDbEntity
  8
0
  6
Continuous
 62
     7
100
AcDbLine
 10
-27.7771034721
 20
-3.8577178804
 30
0.0
 11
-27.4065929287
 21
-5.4462787653
 31
0.0
  0
LINE
  5
22F
330
370
100
AcDbEntity
  8
0
  6
Continuous
 62
     7
100
AcDbLine
 10
-27.4065929287
 20
-5.4462787653
 30
0.0
 11
-27.1389148813
 21
-5.4462787653
 31
0.0
  0
LINE
  5
230
330
370
100
AcDbEntity
  8
0
  6
Continuous
 62
     7
100
AcDbLine
 10
-27.1389148813
 20
-5.4462787653
 30
0.0
 11
-26.7684043379
 21
-3.8577178804
 31
0.0
  0
LINE
  5
231
330
370
100
AcDbEntity
  8
0
  6
Continuous
 62
     7
100
AcDbLine
 10
-26.7684043379
 20
-3.8577178804
 30
0.0
 11
-26.5803320603
 21
-3.8577178804
 31
0.0
  0
LINE
  5
232
330
370
100
AcDbEntity
  8
0
  6
Continuous
 62
     7
100
AcDbLine
 10
-26.5803320603
 20
-3.8577178804
 30
0.0
 11
-26.2354165874
 21
-2.6479709711
 31
0.0
  0
LINE
  5
233
330
370
100
AcDbEntity
  8
0
  6
Continuous
 62
     7
100
AcDbLine
 10
-26.2354165874
 20
-2.6479709711
 30
0.0
 11
-25.6310973949
 21
-2.0687309451
 31
0.0
  0
LINE
  5
234
330
370
100
AcDbEntity
  8
0
  6
Continuous
 62
     7
100
AcDbLine
 10
-25.6310973949
 20
-2.0687309451
 30
0.0
 11
-25.6310973949
 21
-0.3929180673
 31
0.0
  0
LINE
  5
235
330
370
100
AcDbEntity
  8
0
  6
Continuous
 62
     7
100
AcDbLine
 10
-25.6310973949
 20
-0.3929180673
 30
0.0
 11
-25.0109790307
 21
-0.3929180673
 31
0.0
  0
LINE
  5
236
330
370
100
AcDbEntity
  8
0
  6
Continuous
 62
     7
100
AcDbLine
 10
-25.0109790307
 20
-0.3929180673
 30
0.0
 11
-25.0109790307
 21
6.093798029
 31
0.0
  0
LINE
  5
237
330
370
100
AcDbEntity
  8
0
  6
Continuous
 62
     7
100
AcDbLine
 10
-23.438385155
 20
5.2485823123
 30
0.0
 11
-23.0808812006
 21
5.6060862668
 31
0.0
  0
LINE
  5
238
330
370
100
AcDbEntity
  8
0
  6
Continuous
 62
     7
100
AcDbLine
 10
-31.4625594236
 20
5.607631382
 30
0.0
 11
-31.1050349193
 21
5.2501068777
 31
0.0
  0
LINE
  5
239
330
370
100
AcDbEntity
  8
0
  6
Continuous
 62
     7
100
AcDbLine
 10
-29.5345287793
 20
6.093798029
 30
0.0
 11
-29.5345287793
 21
-0.3929180673
 31
0.0
  0
LINE
  5
23A
330
370
100
AcDbEntity
  8
0
  6
Continuous
 62
     7
100
AcDbLine
 10
-29.5345287793
 20
-0.3929180673
 30
0.0
 11
-28.9144104151
 21
-0.3929180673
 31
0.0
  0
LINE
  5
23B
330
370
100
AcDbEntity
  8
0
  6
Continuous
 62
     7
100
AcDbLine
 10
-28.9144104151
 20
-0.3929180673
 30
0.0
 11
-28.9144104151
 21
-2.0687309451
 31
0.0
  0
LINE
  5
23C
330
370
100
AcDbEntity
  8
0
  6
Continuous
 62
     7
100
AcDbLine
 10
4.082246095
 20
-8.252246095
 30
0.0
 11
7.407246095
 21
-8.252246095
 31
0.0
  0
LINE
  5
23D
330
370
100
AcDbEntity
  8
0
  6
Continuous
 62
     7
100
AcDbLine
 10
8.647246095
 20
-7.012246095
 30
0.0
 11
8.647246095
 21
-6.0177251304
 31
0.0
  0
LINE
  5
23E
330
370
100
AcDbEntity
  8
0
  6
Continuous
 62
     7
100
AcDbLine
 10
7.407246095
 20
-4.7777251304
 30
0.0
 11
5.430496095
 21
-4.7777251304
 31
0.0
  0
LINE
  5
23F
330
370
100
AcDbEntity
  8
0
  6
Continuous
 62
     7
100
AcDbLine
 10
5.430496095
 20
-4.1532041658
 30
0.0
 11
8.247246095
 21
-4.1532041658
 31
0.0
  0
LINE
  5
240
330
370
100
AcDbEntity
  8
0
  6
Continuous
 62
     7
100
AcDbLine
 10
8.247246095
 20
-4.1532041658
 30
0.0
 11
8.247246095
 21
-2.737246095
 31
0.0
  0
LINE
  5
241
330
370
100
AcDbEntity
  8
0
  6
Continuous
 62
     7
100
AcDbLine
 10
8.247246095
 20
-2.737246095
 30
0.0
 11
4.509746095
 21
-2.737246095
 31
0.0
  0
LINE
  5
242
330
370
100
AcDbEntity
  8
0
  6
Continuous
 62
     7
100
AcDbLine
 10
2.142246095
 20
-2.737246095
 30
0.0
 11
1.059121095
 21
-2.737246095
 31
0.0
  0
LINE
  5
243
330
370
100
AcDbEntity
  8
0
  6
Continuous
 62
     7
100
AcDbLine
 10
1.059121095
 20
-2.737246095
 30
0.0
 11
1.059121095
 21
-4.1532041658
 31
0.0
  0
LINE
  5
244
330
370
100
AcDbEntity
  8
0
  6
Continuous
 62
     7
100
AcDbLine
 10
1.059121095
 20
-4.1532041658
 30
0.0
 11
1.123496095
 21
-4.1532041658
 31
0.0
  0
LINE
  5
245
330
370
100
AcDbEntity
  8
0
  6
Continuous
 62
     7
100
AcDbLine
 10
1.623496095
 20
-4.6532041658
 30
0.0
 11
1.623496095
 21
-6.327246095
 31
0.0
  0
LINE
  5
246
330
370
100
AcDbEntity
  8
0
  6
Continuous
 62
     7
100
AcDbLine
 10
1.123496095
 20
-6.827246095
 30
0.0
 11
1.059121095
 21
-6.827246095
 31
0.0
  0
LINE
  5
247
330
370
100
AcDbEntity
  8
0
  6
Continuous
 62
     7
100
AcDbLine
 10
1.059121095
 20
-6.827246095
 30
0.0
 11
1.059121095
 21
-8.252246095
 31
0.0
  0
LINE
  5
248
330
370
100
AcDbEntity
  8
0
  6
Continuous
 62
     7
100
AcDbLine
 10
1.059121095
 20
-8.252246095
 30
0.0
 11
2.142246095
 21
-8.252246095
 31
0.0
  0
LINE
  5
249
330
370
100
AcDbEntity
  8
0
  6
Continuous
 62
     7
100
AcDbLine
 10
3.382246095
 20
-7.012246095
 30
0.0
 11
3.382246095
 21
-5.4788101525
 31
0.0
  0
LINE
  5
24A
330
370
100
AcDbEntity
  8
0
  6
Continuous
 62
     7
100
AcDbLine
 10
4.509746095
 20
-6.2027251304
 30
0.0
 11
6.486496095
 21
-6.2027251304
 31
0.0
  0
LINE
  5
24B
330
370
100
AcDbEntity
  8
0
  6
Continuous
 62
     7
100
AcDbLine
 10
6.486496095
 20
-6.827246095
 30
0.0
 11
4.082246095
 21
-6.827246095
 31
0.0
  0
LINE
  5
24C
330
370
100
AcDbEntity
  8
0
  6
Continuous
 62
     7
100
AcDbLine
 10
4.082246095
 20
-6.827246095
 30
0.0
 11
4.082246095
 21
-8.252246095
 31
0.0
  0
LINE
  5
24D
330
370
100
AcDbEntity
  8
0
  6
Continuous
 62
     7
100
AcDbLine
 10
-15.047753905
 20
0.832246095
 30
0.0
 11
-12.997753905
 21
0.832246095
 31
0.0
  0
LINE
  5
24E
330
370
100
AcDbEntity
  8
0
  6
Continuous
 62
     7
100
AcDbLine
 10
-12.997753905
 20
0.832246095
 30
0.0
 11
-12.997753905
 21
3.457246095
 31
0.0
  0
LINE
  5
24F
330
370
100
AcDbEntity
  8
0
  6
Continuous
 62
     7
100
AcDbLine
 10
-12.997753905
 20
3.457246095
 30
0.0
 11
-12.297753905
 21
3.457246095
 31
0.0
  0
LINE
  5
250
330
370
100
AcDbEntity
  8
0
  6
Continuous
 62
     7
100
AcDbLine
 10
-12.297753905
 20
3.457246095
 30
0.0
 11
-12.297753905
 21
5.067246095
 31
0.0
  0
LINE
  5
251
330
370
100
AcDbEntity
  8
0
  6
Continuous
 62
     7
100
AcDbLine
 10
-12.297753905
 20
5.067246095
 30
0.0
 11
-12.997753905
 21
5.067246095
 31
0.0
  0
LINE
  5
252
330
370
100
AcDbEntity
  8
0
  6
Continuous
 62
     7
100
AcDbLine
 10
-12.997753905
 20
5.067246095
 30
0.0
 11
-12.997753905
 21
6.652246095
 31
0.0
  0
LINE
  5
253
330
370
100
AcDbEntity
  8
0
  6
Continuous
 62
     7
100
AcDbLine
 10
-12.997753905
 20
6.652246095
 30
0.0
 11
-12.297753905
 21
6.652246095
 31
0.0
  0
LINE
  5
254
330
370
100
AcDbEntity
  8
0
  6
Continuous
 62
     7
100
AcDbLine
 10
-12.297753905
 20
6.652246095
 30
0.0
 11
-12.297753905
 21
8.252246095
 31
0.0
  0
LINE
  5
255
330
370
100
AcDbEntity
  8
0
  6
Continuous
 62
     7
100
AcDbLine
 10
-12.297753905
 20
8.252246095
 30
0.0
 11
-15.047753905
 21
8.252246095
 31
0.0
  0
LINE
  5
256
330
370
100
AcDbEntity
  8
0
  6
Continuous
 62
     7
100
AcDbLine
 10
-15.047753905
 20
8.252246095
 30
0.0
 11
-15.047753905
 21
0.832246095
 31
0.0
  0
LINE
  5
257
330
370
100
AcDbEntity
  8
0
  6
Continuous
 62
     7
100
AcDbLine
 10
-8.3717512663
 20
0.832246095
 30
0.0
 11
-6.5892512663
 21
0.832246095
 31
0.0
  0
LINE
  5
258
330
370
100
AcDbEntity
  8
0
  6
Continuous
 62
     7
100
AcDbLine
 10
-6.5892512663
 20
0.832246095
 30
0.0
 11
-6.5892512663
 21
4.407246095
 31
0.0
  0
LINE
  5
259
330
370
100
AcDbEntity
  8
0
  6
Continuous
 62
     7
100
AcDbLine
 10
-6.1067512663
 20
4.889746095
 30
0.0
 11
-5.4442512663
 21
4.889746095
 31
0.0
  0
LINE
  5
25A
330
370
100
AcDbEntity
  8
0
  6
Continuous
 62
     7
100
AcDbLine
 10
-5.4442512663
 20
4.889746095
 30
0.0
 11
-5.4442512663
 21
2.082246095
 31
0.0
  0
LINE
  5
25B
330
370
100
AcDbEntity
  8
0
  6
Continuous
 62
     7
100
AcDbLine
 10
-4.1942512663
 20
0.832246095
 30
0.0
 11
-3.1105012663
 21
0.832246095
 31
0.0
  0
LINE
  5
25C
330
370
100
AcDbEntity
  8
0
  6
Continuous
 62
     7
100
AcDbLine
 10
-3.1105012663
 20
0.832246095
 30
0.0
 11
-3.1105012663
 21
2.267246095
 31
0.0
  0
LINE
  5
25D
330
370
100
AcDbEntity
  8
0
  6
Continuous
 62
     7
100
AcDbLine
 10
-3.1105012663
 20
2.267246095
 30
0.0
 11
-3.1692512663
 21
2.267246095
 31
0.0
  0
LINE
  5
25E
330
370
100
AcDbEntity
  8
0
  6
Continuous
 62
     7
100
AcDbLine
 10
-3.6692512663
 20
2.767246095
 30
0.0
 11
-3.6692512663
 21
4.382246095
 31
0.0
  0
LINE
  5
25F
330
370
100
AcDbEntity
  8
0
  6
Continuous
 62
     7
100
AcDbLine
 10
-3.1692512663
 20
4.882246095
 30
0.0
 11
-3.1105012663
 21
4.882246095
 31
0.0
  0
LINE
  5
260
330
370
100
AcDbEntity
  8
0
  6
Continuous
 62
     7
100
AcDbLine
 10
-3.1105012663
 20
4.882246095
 30
0.0
 11
-3.1105012663
 21
6.382246095
 31
0.0
  0
LINE
  5
261
330
370
100
AcDbEntity
  8
0
  6
Continuous
 62
     7
100
AcDbLine
 10
-3.1105012663
 20
6.382246095
 30
0.0
 11
-4.1942512663
 21
6.382246095
 31
0.0
  0
LINE
  5
262
330
370
100
AcDbEntity
  8
0
  6
Continuous
 62
     7
100
AcDbLine
 10
-5.3717512663
 20
5.5517621853
 30
0.0
 11
-5.3717512663
 21
6.382246095
 31
0.0
  0
LINE
  5
263
330
370
100
AcDbEntity
  8
0
  6
Continuous
 62
     7
100
AcDbLine
 10
-5.3717512663
 20
6.382246095
 30
0.0
 11
-6.8509738658
 21
6.382246095
 31
0.0
  0
LINE
  5
264
330
370
100
AcDbEntity
  8
0
  6
Continuous
 62
     7
100
AcDbLine
 10
-8.230253905
 20
5.5020547349
 30
0.0
 11
-8.230253905
 21
6.642246095
 31
0.0
  0
LINE
  5
265
330
370
100
AcDbEntity
  8
0
  6
Continuous
 62
     7
100
AcDbLine
 10
-9.840253905
 20
8.252246095
 30
0.0
 11
-11.047753905
 21
8.252246095
 31
0.0
  0
LINE
  5
266
330
370
100
AcDbEntity
  8
0
  6
Continuous
 62
     7
100
AcDbLine
 10
-11.047753905
 20
8.252246095
 30
0.0
 11
-11.047753905
 21
6.652246095
 31
0.0
  0
LINE
  5
267
330
370
100
AcDbEntity
  8
0
  6
Continuous
 62
     7
100
AcDbLine
 10
-11.047753905
 20
6.652246095
 30
0.0
 11
-10.847753905
 21
6.652246095
 31
0.0
  0
LINE
  5
268
330
370
100
AcDbEntity
  8
0
  6
Continuous
 62
     7
100
AcDbLine
 10
-10.347753905
 20
6.152246095
 30
0.0
 11
-10.347753905
 21
5.567246095
 31
0.0
  0
LINE
  5
269
330
370
100
AcDbEntity
  8
0
  6
Continuous
 62
     7
100
AcDbLine
 10
-10.847753905
 20
5.067246095
 30
0.0
 11
-11.047753905
 21
5.067246095
 31
0.0
  0
LINE
  5
26A
330
370
100
AcDbEntity
  8
0
  6
Continuous
 62
     7
100
AcDbLine
 10
-11.047753905
 20
5.067246095
 30
0.0
 11
-11.047753905
 21
3.457246095
 31
0.0
  0
LINE
  5
26B
330
370
100
AcDbEntity
  8
0
  6
Continuous
 62
     7
100
AcDbLine
 10
-11.047753905
 20
3.457246095
 30
0.0
 11
-9.840253905
 21
3.457246095
 31
0.0
  0
LINE
  5
26C
330
370
100
AcDbEntity
  8
0
  6
Continuous
 62
     7
100
AcDbLine
 10
-8.3717512663
 20
4.407246095
 30
0.0
 11
-8.3717512663
 21
0.832246095
 31
0.0
  0
LINE
  5
26D
330
370
100
AcDbEntity
  8
0
  6
Continuous
 62
     7
100
AcDbLine
 10
29.5861936092
 20
0.832246095
 30
0.0
 11
29.5861936092
 21
2.267246095
 31
0.0
  0
LINE
  5
26E
330
370
100
AcDbEntity
  8
0
  6
Continuous
 62
     7
100
AcDbLine
 10
29.5861936092
 20
2.267246095
 30
0.0
 11
25.7811936092
 21
2.267246095
 31
0.0
  0
LINE
  5
26F
330
370
100
AcDbEntity
  8
0
  6
Continuous
 62
     7
100
AcDbLine
 10
25.7051869344
 20
2.7610693908
 30
0.0
 11
26.3661936092
 21
2.9694839948
 31
0.0
  0
LINE
  5
270
330
370
100
AcDbEntity
  8
0
  6
Continuous
 62
     7
100
AcDbLine
 10
26.3661936092
 20
2.9694839948
 30
0.0
 11
26.3661936092
 21
4.240825559
 31
0.0
  0
LINE
  5
271
330
370
100
AcDbEntity
  8
0
  6
Continuous
 62
     7
100
AcDbLine
 10
26.3661936092
 20
4.240825559
 30
0.0
 11
25.5284326882
 21
3.9766805553
 31
0.0
  0
LINE
  5
272
330
370
100
AcDbEntity
  8
0
  6
Continuous
 62
     7
100
AcDbLine
 10
25.5284326882
 20
3.9766805553
 30
0.0
 11
25.5284326882
 21
4.382246095
 31
0.0
  0
LINE
  5
273
330
370
100
AcDbEntity
  8
0
  6
Continuous
 62
     7
100
AcDbLine
 10
26.0284326882
 20
4.882246095
 30
0.0
 11
26.3661936092
 21
4.882246095
 31
0.0
  0
LINE
  5
274
330
370
100
AcDbEntity
  8
0
  6
Continuous
 62
     7
100
AcDbLine
 10
26.3661936092
 20
4.882246095
 30
0.0
 11
26.3661936092
 21
6.382246095
 31
0.0
  0
LINE
  5
275
330
370
100
AcDbEntity
  8
0
  6
Continuous
 62
     7
100
AcDbLine
 10
26.3661936092
 20
6.382246095
 30
0.0
 11
25.0411936092
 21
6.382246095
 31
0.0
  0
LINE
  5
276
330
370
100
AcDbEntity
  8
0
  6
Continuous
 62
     7
100
AcDbLine
 10
22.4411936092
 20
6.382246095
 30
0.0
 11
21.5161936092
 21
6.382246095
 31
0.0
  0
LINE
  5
277
330
370
100
AcDbEntity
  8
0
  6
Continuous
 62
     7
100
AcDbLine
 10
21.5161936092
 20
6.382246095
 30
0.0
 11
21.5161936092
 21
4.882246095
 31
0.0
  0
LINE
  5
278
330
370
100
AcDbEntity
  8
0
  6
Continuous
 62
     7
100
AcDbLine
 10
21.5161936092
 20
4.882246095
 30
0.0
 11
21.5749436092
 21
4.882246095
 31
0.0
  0
LINE
  5
279
330
370
100
AcDbEntity
  8
0
  6
Continuous
 62
     7
100
AcDbLine
 10
22.0749436092
 20
4.382246095
 30
0.0
 11
22.0749436092
 21
2.767246095
 31
0.0
  0
LINE
  5
27A
330
370
100
AcDbEntity
  8
0
  6
Continuous
 62
     7
100
AcDbLine
 10
21.5749436092
 20
2.267246095
 30
0.0
 11
21.5161936092
 21
2.267246095
 31
0.0
  0
LINE
  5
27B
330
370
100
AcDbEntity
  8
0
  6
Continuous
 62
     7
100
AcDbLine
 10
21.5161936092
 20
2.267246095
 30
0.0
 11
21.5161936092
 21
0.832246095
 31
0.0
  0
LINE
  5
27C
330
370
100
AcDbEntity
  8
0
  6
Continuous
 62
     7
100
AcDbLine
 10
21.5161936092
 20
0.832246095
 30
0.0
 11
22.4411936092
 21
0.832246095
 31
0.0
  0
LINE
  5
27D
330
370
100
AcDbEntity
  8
0
  6
Continuous
 62
     7
100
AcDbLine
 10
25.2161936092
 20
0.832246095
 30
0.0
 11
29.5861936092
 21
0.832246095
 31
0.0
  0
LINE
  5
27E
330
370
100
AcDbEntity
  8
0
  6
Continuous
 62
     7
100
AcDbLine
 10
-12.997753905
 20
-8.252246095
 30
0.0
 11
-12.997753905
 21
-5.389746095
 31
0.0
  0
LINE
  5
27F
330
370
100
AcDbEntity
  8
0
  6
Continuous
 62
     7
100
AcDbLine
 10
-12.997753905
 20
-5.389746095
 30
0.0
 11
-10.197753905
 21
-5.389746095
 31
0.0
  0
LINE
  5
280
330
370
100
AcDbEntity
  8
0
  6
Continuous
 62
     7
100
AcDbLine
 10
-10.197753905
 20
-5.389746095
 30
0.0
 11
-10.197753905
 21
-8.252246095
 31
0.0
  0
LINE
  5
281
330
370
100
AcDbEntity
  8
0
  6
Continuous
 62
     7
100
AcDbLine
 10
-10.197753905
 20
-8.252246095
 30
0.0
 11
-8.147753905
 21
-8.252246095
 31
0.0
  0
LINE
  5
282
330
370
100
AcDbEntity
  8
0
  6
Continuous
 62
     7
100
AcDbLine
 10
-8.147753905
 20
-8.252246095
 30
0.0
 11
-8.147753905
 21
-7.5283311171
 31
0.0
  0
LINE
  5
283
330
370
100
AcDbEntity
  8
0
  6
Continuous
 62
     7
100
AcDbLine
 10
-7.020253905
 20
-8.252246095
 30
0.0
 11
-3.670253905
 21
-8.252246095
 31
0.0
  0
LINE
  5
284
330
370
100
AcDbEntity
  8
0
  6
Continuous
 62
     7
100
AcDbLine
 10
-1.302753905
 20
-8.252246095
 30
0.0
 11
-0.190878905
 21
-8.252246095
 31
0.0
  0
LINE
  5
285
330
370
100
AcDbEntity
  8
0
  6
Continuous
 62
     7
100
AcDbLine
 10
-0.190878905
 20
-8.252246095
 30
0.0
 11
-0.190878905
 21
-6.827246095
 31
0.0
  0
LINE
  5
286
330
370
100
AcDbEntity
  8
0
  6
Continuous
 62
     7
100
AcDbLine
 10
-0.190878905
 20
-6.827246095
 30
0.0
 11
-0.255253905
 21
-6.827246095
 31
0.0
  0
LINE
  5
287
330
370
100
AcDbEntity
  8
0
  6
Continuous
 62
     7
100
AcDbLine
 10
-0.755253905
 20
-6.327246095
 30
0.0
 11
-0.755253905
 21
-4.6532041658
 31
0.0
  0
LINE
  5
288
330
370
100
AcDbEntity
  8
0
  6
Continuous
 62
     7
100
AcDbLine
 10
-0.255253905
 20
-4.1532041658
 30
0.0
 11
-0.190878905
 21
-4.1532041658
 31
0.0
  0
LINE
  5
289
330
370
100
AcDbEntity
  8
0
  6
Continuous
 62
     7
100
AcDbLine
 10
-0.190878905
 20
-4.1532041658
 30
0.0
 11
-0.190878905
 21
-2.737246095
 31
0.0
  0
LINE
  5
28A
330
370
100
AcDbEntity
  8
0
  6
Continuous
 62
     7
100
AcDbLine
 10
-0.190878905
 20
-2.737246095
 30
0.0
 11
-0.755253905
 21
-2.737246095
 31
0.0
  0
LINE
  5
28B
330
370
100
AcDbEntity
  8
0
  6
Continuous
 62
     7
100
AcDbLine
 10
-0.755253905
 20
-2.737246095
 30
0.0
 11
-0.755253905
 21
-0.698746095
 31
0.0
  0
LINE
  5
28C
330
370
100
AcDbEntity
  8
0
  6
Continuous
 62
     7
100
AcDbLine
 10
-0.755253905
 20
-0.698746095
 30
0.0
 11
-2.542753905
 21
-0.698746095
 31
0.0
  0
LINE
  5
28D
330
370
100
AcDbEntity
  8
0
  6
Continuous
 62
     7
100
AcDbLine
 10
-2.542753905
 20
-0.698746095
 30
0.0
 11
-2.542753905
 21
-2.737246095
 31
0.0
  0
LINE
  5
28E
330
370
100
AcDbEntity
  8
0
  6
Continuous
 62
     7
100
AcDbLine
 10
-2.542753905
 20
-2.737246095
 30
0.0
 11
-4.217753905
 21
-2.737246095
 31
0.0
  0
LINE
  5
28F
330
370
100
AcDbEntity
  8
0
  6
Continuous
 62
     7
100
AcDbLine
 10
-4.217753905
 20
-2.737246095
 30
0.0
 11
-4.217753905
 21
-6.498496095
 31
0.0
  0
LINE
  5
290
330
370
100
AcDbEntity
  8
0
  6
Continuous
 62
     7
100
AcDbLine
 10
-4.546503905
 20
-6.827246095
 30
0.0
 11
-6.144003905
 21
-6.827246095
 31
0.0
  0
LINE
  5
291
330
370
100
AcDbEntity
  8
0
  6
Continuous
 62
     7
100
AcDbLine
 10
-6.472753905
 20
-6.498496095
 30
0.0
 11
-6.472753905
 21
-2.737246095
 31
0.0
  0
LINE
  5
292
330
370
100
AcDbEntity
  8
0
  6
Continuous
 62
     7
100
AcDbLine
 10
-6.472753905
 20
-2.737246095
 30
0.0
 11
-8.147753905
 21
-2.737246095
 31
0.0
  0
LINE
  5
293
330
370
100
AcDbEntity
  8
0
  6
Continuous
 62
     7
100
AcDbLine
 10
-8.147753905
 20
-2.737246095
 30
0.0
 11
-8.147753905
 21
-0.902246095
 31
0.0
  0
LINE
  5
294
330
370
100
AcDbEntity
  8
0
  6
Continuous
 62
     7
100
AcDbLine
 10
-8.147753905
 20
-0.902246095
 30
0.0
 11
-10.197753905
 21
-0.902246095
 31
0.0
  0
LINE
  5
295
330
370
100
AcDbEntity
  8
0
  6
Continuous
 62
     7
100
AcDbLine
 10
-10.197753905
 20
-0.902246095
 30
0.0
 11
-10.197753905
 21
-3.764746095
 31
0.0
  0
LINE
  5
296
330
370
100
AcDbEntity
  8
0
  6
Continuous
 62
     7
100
AcDbLine
 10
-10.197753905
 20
-3.764746095
 30
0.0
 11
-12.997753905
 21
-3.764746095
 31
0.0
  0
LINE
  5
297
330
370
100
AcDbEntity
  8
0
  6
Continuous
 62
     7
100
AcDbLine
 10
-12.997753905
 20
-3.764746095
 30
0.0
 11
-12.997753905
 21
-0.902246095
 31
0.0
  0
LINE
  5
298
330
370
100
AcDbEntity
  8
0
  6
Continuous
 62
     7
100
AcDbLine
 10
-12.997753905
 20
-0.902246095
 30
0.0
 11
-15.047753905
 21
-0.902246095
 31
0.0
  0
LINE
  5
299
330
370
100
AcDbEntity
  8
0
  6
Continuous
 62
     7
100
AcDbLine
 10
-15.047753905
 20
-0.902246095
 30
0.0
 11
-15.047753905
 21
-8.252246095
 31
0.0
  0
LINE
  5
29A
330
370
100
AcDbEntity
  8
0
  6
Continuous
 62
     7
100
AcDbLine
 10
-15.047753905
 20
-8.252246095
 30
0.0
 11
-12.997753905
 21
-8.252246095
 31
0.0
  0
LINE
  5
29B
330
370
100
AcDbEntity
  8
0
  6
Continuous
 62
     7
100
AcDbLine
 10
28.2386936092
 20
6.382246095
 30
0.0
 11
27.6161936092
 21
6.382246095
 31
0.0
  0
LINE
  5
29C
330
370
100
AcDbEntity
  8
0
  6
Continuous
 62
     7
100
AcDbLine
 10
27.6161936092
 20
6.382246095
 30
0.0
 11
27.6161936092
 21
4.882246095
 31
0.0
  0
LINE
  5
29D
330
370
100
AcDbEntity
  8
0
  6
Continuous
 62
     7
100
AcDbLine
 10
27.6161936092
 20
4.882246095
 30
0.0
 11
27.9539545302
 21
4.882246095
 31
0.0
  0
LINE
  5
29E
330
370
100
AcDbEntity
  8
0
  6
Continuous
 62
     7
100
AcDbLine
 10
28.1884237797
 20
4.8153725248
 30
0.0
 11
27.6161936092
 21
4.6349490451
 31
0.0
  0
LINE
  5
29F
330
370
100
AcDbEntity
  8
0
  6
Continuous
 62
     7
100
AcDbLine
 10
27.6161936092
 20
4.6349490451
 30
0.0
 11
27.6161936092
 21
3.3636074809
 31
0.0
  0
LINE
  5
2A0
330
370
100
AcDbEntity
  8
0
  6
Continuous
 62
     7
100
AcDbLine
 10
27.6161936092
 20
3.3636074809
 30
0.0
 11
29.5861936092
 21
3.984746095
 31
0.0
  0
LINE
  5
2A1
330
370
100
AcDbEntity
  8
0
  6
Continuous
 62
     7
100
AcDbLine
 10
29.5861936092
 20
3.984746095
 30
0.0
 11
29.5861936092
 21
5.034746095
 31
0.0
  0
LINE
  5
2A2
330
370
100
AcDbEntity
  8
0
  6
Continuous
 62
     7
100
AcDbLine
 10
-26.272753905
 20
-6.4226162893
 30
0.0
 11
-26.272753905
 21
-6.9282032303
 31
0.0
  0
LINE
  5
2A3
330
370
100
AcDbEntity
  8
0
  6
Continuous
 62
     7
100
AcDbLine
 10
-21.6666676382
 20
4.1918727044
 30
0.0
 11
-22.0241715927
 21
3.83436875
 31
0.0
  0
ARC
  5
2A4
330
370
100
AcDbEntity
  8
0
  6
Continuous
 62
     7
100
AcDbCircle
 10
-18.372753905
 20
-6.7682675772
 30
0.0
 40
1.000000000000004
100
AcDbArc
 50
0.0
 51
90.0
  0
ARC
  5
2A5
330
370
100
AcDbEntity
  8
0
  6
Continuous
 62
     7
100
AcDbCircle
 10
-19.1420634293
 20
-6.2682675772
 30
0.0
 40
0.5000000000000009
100
AcDbArc
 50
90.0
 51
202.5740682457
  0
ARC
  5
2A6
330
370
100
AcDbEntity
  8
0
  6
Continuous
 62
     7
100
AcDbCircle
 10
-22.3508230117
 20
-7.6022416932
 30
0.0
 40
2.974999999999942
100
AcDbArc
 50
8.5376273647
 51
22.5740682457
  0
ARC
  5
2A7
330
370
100
AcDbEntity
  8
0
  6
Continuous
 62
     7
100
AcDbCircle
 10
-19.903249525
 20
-7.2348059476
 30
0.0
 40
0.4999999999999931
100
AcDbArc
 50
315.5284352825
 51
8.5376273647
  0
ARC
  5
2A8
330
370
100
AcDbEntity
  8
0
  6
Continuous
 62
     7
100
AcDbCircle
 10
-27.272753905
 20
0.0
 30
0.0
 40
10.82724609498369
100
AcDbArc
 50
314.4715647175
 51
315.5284352825
  0
ARC
  5
2A9
330
370
100
AcDbEntity
  8
0
  6
Continuous
 62
     7
100
AcDbCircle
 10
-20.0379479574
 20
-7.36950438
 30
0.0
 40
0.4999999999999847
100
AcDbArc
 50
261.4623726353
 51
314.4715647175
  0
ARC
  5
2AA
330
370
100
AcDbEntity
  8
0
  6
Continuous
 62
     7
100
AcDbCircle
 10
-19.6705122118
 20
-4.9219308933
 30
0.0
 40
2.974999999999917
100
AcDbArc
 50
231.9417793833
 51
261.4623726353
  0
ARC
  5
2AB
330
370
100
AcDbEntity
  8
0
  6
Continuous
 62
     7
100
AcDbCircle
 10
-21.6586017997
 20
-7.4612467047
 30
0.0
 40
0.2499999999999915
100
AcDbArc
 50
51.94177938329999
 51
126.9593230409
  0
ARC
  5
2AC
330
370
100
AcDbEntity
  8
0
  6
Continuous
 62
     7
100
AcDbCircle
 10
-27.272753905
 20
0.0
 30
0.0
 40
9.087500000000468
100
AcDbArc
 50
300.5406769591
 51
306.9593230409
  0
ARC
  5
2AD
330
370
100
AcDbEntity
  8
0
  6
Continuous
 62
     7
100
AcDbCircle
 10
-22.5279037849
 20
-8.0420957211
 30
0.0
 40
0.2499999999999994
100
AcDbArc
 50
120.5406769591
 51
195.5582206167
  0
ARC
  5
2AE
330
370
100
AcDbEntity
  8
0
  6
Continuous
 62
     7
100
AcDbCircle
 10
-25.6347346371
 20
-8.9070969096
 30
0.0
 40
2.975000000000026
100
AcDbArc
 50
346.0376273647
 51
15.5582206167
  0
ARC
  5
2AF
330
370
100
AcDbEntity
  8
0
  6
Continuous
 62
     7
100
AcDbCircle
 10
-23.2328600161
 20
-9.5042763677
 30
0.0
 40
0.4999999999999903
100
AcDbArc
 50
293.0284352825
 51
346.0376273647
  0
ARC
  5
2B0
330
370
100
AcDbEntity
  8
0
  6
Continuous
 62
     7
100
AcDbCircle
 10
-27.272753905
 20
0.0
 30
0.0
 40
10.82724609500244
100
AcDbArc
 50
291.9715647174999
 51
293.0284352825
  0
ARC
  5
2B1
330
370
100
AcDbEntity
  8
0
  6
Continuous
 62
     7
100
AcDbCircle
 10
-23.4088519993
 20
-9.577174634
 30
0.0
 40
0.4999999999999962
100
AcDbArc
 50
238.9623726353
 51
291.9715647174999
  0
ARC
  5
2B2
330
370
100
AcDbEntity
  8
0
  6
Continuous
 62
     7
100
AcDbCircle
 10
-22.1327398116
 20
-7.4565231576
 30
0.0
 40
2.974999999999885
100
AcDbArc
 50
209.4417793833
 51
238.9623726353
  0
ARC
  5
2B3
330
370
100
AcDbEntity
  8
0
  6
Continuous
 62
     7
100
AcDbCircle
 10
-24.9412491812
 20
-9.041736115
 30
0.0
 40
0.2500000000000018
100
AcDbArc
 50
29.4417793833
 51
104.4593230409
  0
ARC
  5
2B4
330
370
100
AcDbEntity
  8
0
  6
Continuous
 62
     7
100
AcDbCircle
 10
-27.272753905
 20
0.0
 30
0.0
 40
9.087499999998833
100
AcDbArc
 50
278.0406769591
 51
284.4593230409
  0
ARC
  5
2B5
330
370
100
AcDbEntity
  8
0
  6
Continuous
 62
     7
100
AcDbCircle
 10
-25.9666607882
 20
-9.2457031653
 30
0.0
 40
0.2500000000000075
100
AcDbArc
 50
98.0406769591
 51
173.0582206167
  0
ARC
  5
2B6
330
370
100
AcDbEntity
  8
0
  6
Continuous
 62
     7
100
AcDbCircle
 10
-29.1680198473
 20
-8.8559273646
 30
0.0
 40
2.974999999999939
100
AcDbArc
 50
323.5376273647
 51
353.0582206167
  0
ARC
  5
2B7
330
370
100
AcDbEntity
  8
0
  6
Continuous
 62
     7
100
AcDbCircle
 10
-27.1775077301
 20
-10.3268068672
 30
0.0
 40
0.5000000000000144
100
AcDbArc
 50
270.5284352825
 51
323.5376273647
  0
ARC
  5
2B8
330
370
100
AcDbEntity
  8
0
  6
Continuous
 62
     7
100
AcDbCircle
 10
-27.3680000799
 20
-10.3268068672
 30
0.0
 40
0.5000000000000001
100
AcDbArc
 50
216.4623726353
 51
269.4715647175
  0
ARC
  5
2B9
330
370
100
AcDbEntity
  8
0
  6
Continuous
 62
     7
100
AcDbCircle
 10
-25.3774879627
 20
-8.8559273646
 30
0.0
 40
2.97500000000006
100
AcDbArc
 50
186.9417793833
 51
216.4623726353
  0
ARC
  5
2BA
330
370
100
AcDbEntity
  8
0
  6
Continuous
 62
     7
100
AcDbCircle
 10
-28.5788470218
 20
-9.2457031653
 30
0.0
 40
0.2499999999999952
100
AcDbArc
 50
6.9417793833
 51
81.9593230409
  0
ARC
  5
2BB
330
370
100
AcDbEntity
  8
0
  6
Continuous
 62
     7
100
AcDbCircle
 10
-27.272753905
 20
0.0
 30
0.0
 40
9.087499999998697
100
AcDbArc
 50
255.5406769591
 51
261.9593230409
  0
ARC
  5
2BC
330
370
100
AcDbEntity
  8
0
  6
Continuous
 62
     7
100
AcDbCircle
 10
-29.6042586288
 20
-9.041736115
 30
0.0
 40
0.2500000000000105
100
AcDbArc
 50
75.5406769591
 51
150.5582206167
  0
ARC
  5
2BD
330
370
100
AcDbEntity
  8
0
  6
Continuous
 62
     7
100
AcDbCircle
 10
-32.4127679984
 20
-7.4565231576
 30
0.0
 40
2.975000000000003
100
AcDbArc
 50
301.0376273647
 51
330.5582206167001
  0
ARC
  5
2BE
330
370
100
AcDbEntity
  8
0
  6
Continuous
 62
     7
100
AcDbCircle
 10
-31.1366558107
 20
-9.577174634
 30
0.0
 40
0.4999999999999727
100
AcDbArc
 50
248.0284352824999
 51
301.0376273647
  0
ARC
  5
2BF
330
370
100
AcDbEntity
  8
0
  6
Continuous
 62
     7
100
AcDbCircle
 10
-27.272753905
 20
0.0
 30
0.0
 40
10.82724609500936
100
AcDbArc
 50
246.9715647175
 51
248.0284352824999
  0
ARC
  5
2C0
330
370
100
AcDbEntity
  8
0
  6
Continuous
 62
     7
100
AcDbCircle
 10
-31.3126477939
 20
-9.5042763677
 30
0.0
 40
0.4999999999999821
100
AcDbArc
 50
193.9623726353
 51
246.9715647175
  0
ARC
  5
2C1
330
370
100
AcDbEntity
  8
0
  6
Continuous
 62
     7
100
AcDbCircle
 10
-28.9107731729
 20
-8.9070969096
 30
0.0
 40
2.975000000000007
100
AcDbArc
 50
164.4417793833
 51
193.9623726353
  0
ARC
  5
2C2
330
370
100
AcDbEntity
  8
0
  6
Continuous
 62
     7
100
AcDbCircle
 10
-32.0176040251
 20
-8.0420957211
 30
0.0
 40
0.2499999999999937
100
AcDbArc
 50
344.4417793832999
 51
59.4593230409
  0
ARC
  5
2C3
330
370
100
AcDbEntity
  8
0
  6
Continuous
 62
     7
100
AcDbCircle
 10
-27.272753905
 20
0.0
 30
0.0
 40
9.087500000002477
100
AcDbArc
 50
233.0406769591
 51
239.4593230409
  0
ARC
  5
2C4
330
370
100
AcDbEntity
  8
0
  6
Continuous
 62
     7
100
AcDbCircle
 10
-32.8869060103
 20
-7.4612467047
 30
0.0
 40
0.2499999999999935
100
AcDbArc
 50
53.0406769591
 51
128.0582206167
  0
ARC
  5
2C5
330
370
100
AcDbEntity
  8
0
  6
Continuous
 62
     7
100
AcDbCircle
 10
-34.8749955982
 20
-4.9219308933
 30
0.0
 40
2.975000000000007
100
AcDbArc
 50
278.5376273646999
 51
308.0582206167
  0
ARC
  5
2C6
330
370
100
AcDbEntity
  8
0
  6
Continuous
 62
     7
100
AcDbCircle
 10
-34.5075598526
 20
-7.36950438
 30
0.0
 40
0.5000000000000002
100
AcDbArc
 50
225.5284352825
 51
278.5376273646999
  0
ARC
  5
2C7
330
370
100
AcDbEntity
  8
0
  6
Continuous
 62
     7
100
AcDbCircle
 10
-27.2727539051
 20
-0.0000000001
 30
0.0
 40
10.82724609488285
100
AcDbArc
 50
224.4715647175
 51
225.5284352825
  0
ARC
  5
2C8
330
370
100
AcDbEntity
  8
0
  6
Continuous
 62
     7
100
AcDbCircle
 10
-34.642258285
 20
-7.2348059476
 30
0.0
 40
0.500000000000025
100
AcDbArc
 50
171.4623726353
 51
224.4715647175
  0
ARC
  5
2C9
330
370
100
AcDbEntity
  8
0
  6
Continuous
 62
     7
100
AcDbCircle
 10
-32.1946847983
 20
-7.6022416932
 30
0.0
 40
2.975000000000102
100
AcDbArc
 50
141.9417793833
 51
171.4623726353
  0
ARC
  5
2CA
330
370
100
AcDbEntity
  8
0
  6
Continuous
 62
     7
100
AcDbCircle
 10
-34.7340006097
 20
-5.6141521053
 30
0.0
 40
0.249999999999982
100
AcDbArc
 50
321.9417793833
 51
36.9593230409
  0
ARC
  5
2CB
330
370
100
AcDbEntity
  8
0
  6
Continuous
 62
     7
100
AcDbCircle
 10
-27.272753905
 20
0.0
 30
0.0
 40
9.087500000000004
100
AcDbArc
 50
210.5406769591
 51
216.9593230409
  0
ARC
  5
2CC
330
370
100
AcDbEntity
  8
0
  6
Continuous
 62
     7
100
AcDbCircle
 10
-35.3148496261
 20
-4.7448501201
 30
0.0
 40
0.2499999999999989
100
AcDbArc
 50
30.5406769591
 51
105.5582206167
  0
ARC
  5
2CD
330
370
100
AcDbEntity
  8
0
  6
Continuous
 62
     7
100
AcDbCircle
 10
-36.1798508146
 20
-1.6380192679
 30
0.0
 40
2.974999999999944
100
AcDbArc
 50
256.0376273647
 51
285.5582206167001
  0
ARC
  5
2CE
330
370
100
AcDbEntity
  8
0
  6
Continuous
 62
     7
100
AcDbCircle
 10
-36.7770302727
 20
-4.0398938889
 30
0.0
 40
0.4999999999999917
100
AcDbArc
 50
203.0284352825
 51
256.0376273647
  0
ARC
  5
2CF
330
370
100
AcDbEntity
  8
0
  6
Continuous
 62
     7
100
AcDbCircle
 10
-27.272753905
 20
0.0
 30
0.0
 40
10.82724609500164
100
AcDbArc
 50
201.9715647175
 51
203.0284352825
  0
ARC
  5
2D0
330
370
100
AcDbEntity
  8
0
  6
Continuous
 62
     7
100
AcDbCircle
 10
-36.849928539
 20
-3.8639019057
 30
0.0
 40
0.499999999999972
100
AcDbArc
 50
148.9623726353
 51
201.9715647175
  0
ARC
  5
2D1
330
370
100
AcDbEntity
  8
0
  6
Continuous
 62
     7
100
AcDbCircle
 10
-34.7292770626
 20
-5.1400140934
 30
0.0
 40
2.975000000000009
100
AcDbArc
 50
119.4417793833
 51
148.9623726353
  0
ARC
  5
2D2
330
370
100
AcDbEntity
  8
0
  6
Continuous
 62
     7
100
AcDbCircle
 10
-36.31449002
 20
-2.3315047238
 30
0.0
 40
0.2500000000000026
100
AcDbArc
 50
299.4417793832999
 51
14.4593230409
  0
ARC
  5
2D3
330
370
100
AcDbEntity
  8
0
  6
Continuous
 62
     7
100
AcDbCircle
 10
-27.272753905
 20
0.0
 30
0.0
 40
9.087499999999556
100
AcDbArc
 50
188.0406769591
 51
194.4593230409
  0
ARC
  5
2D4
330
370
100
AcDbEntity
  8
0
  6
Continuous
 62
     7
100
AcDbCircle
 10
-36.5184570703
 20
-1.3060931168
 30
0.0
 40
0.2499999999999884
100
AcDbArc
 50
8.0406769591
 51
83.0582206167
  0
ARC
  5
2D5
330
370
100
AcDbEntity
  8
0
  6
Continuous
 62
     7
100
AcDbCircle
 10
-36.1286812696
 20
1.8952659423
 30
0.0
 40
2.975000000000085
100
AcDbArc
 50
233.5376273647
 51
263.0582206167
  0
ARC
  5
2D6
330
370
100
AcDbEntity
  8
0
  6
Continuous
 62
     7
100
AcDbCircle
 10
-37.5995607722
 20
-0.0952461749
 30
0.0
 40
0.4999999999999725
100
AcDbArc
 50
180.5284352825
 51
233.5376273647
  0
ARC
  5
2D7
330
370
100
AcDbEntity
  8
0
  6
Continuous
 62
     7
100
AcDbCircle
 10
-27.272753905
 20
0.0
 30
0.0
 40
10.82724609495771
100
AcDbArc
 50
179.4715647175
 51
180.5284352825
  0
ARC
  5
2D8
330
370
100
AcDbEntity
  8
0
  6
Continuous
 62
     7
100
AcDbCircle
 10
-37.5995607722
 20
0.0952461749
 30
0.0
 40
0.4999999999999644
100
AcDbArc
 50
126.4623726353
 51
179.4715647175
  0
ARC
  5
2D9
330
370
100
AcDbEntity
  8
0
  6
Continuous
 62
     7
100
AcDbCircle
 10
-36.1286812696
 20
-1.8952659423
 30
0.0
 40
2.975000000000024
100
AcDbArc
 50
96.9417793833
 51
126.4623726353
  0
ARC
  5
2DA
330
370
100
AcDbEntity
  8
0
  6
Continuous
 62
     7
100
AcDbCircle
 10
-36.5184570703
 20
1.3060931168
 30
0.0
 40
0.2499999999999989
100
AcDbArc
 50
276.9417793833
 51
351.9593230409
  0
ARC
  5
2DB
330
370
100
AcDbEntity
  8
0
  6
Continuous
 62
     7
100
AcDbCircle
 10
-27.272753905
 20
0.0
 30
0.0
 40
9.08750000000013
100
AcDbArc
 50
165.5406769591
 51
171.9593230409
  0
ARC
  5
2DC
330
370
100
AcDbEntity
  8
0
  6
Continuous
 62
     7
100
AcDbCircle
 10
-36.31449002
 20
2.3315047238
 30
0.0
 40
0.2499999999999764
100
AcDbArc
 50
345.5406769591
 51
60.55822061669999
  0
ARC
  5
2DD
330
370
100
AcDbEntity
  8
0
  6
Continuous
 62
     7
100
AcDbCircle
 10
-34.7292770626
 20
5.1400140934
 30
0.0
 40
2.975000000000033
100
AcDbArc
 50
211.0376273647
 51
240.5582206166999
  0
ARC
  5
2DE
330
370
100
AcDbEntity
  8
0
  6
Continuous
 62
     7
100
AcDbCircle
 10
-36.849928539
 20
3.8639019057
 30
0.0
 40
0.5000000000000201
100
AcDbArc
 50
158.0284352825
 51
211.0376273647
  0
ARC
  5
2DF
330
370
100
AcDbEntity
  8
0
  6
Continuous
 62
     7
100
AcDbCircle
 10
-27.2727539051
 20
0.0
 30
0.0
 40
10.82724609494512
100
AcDbArc
 50
156.9715647175
 51
158.0284352825
  0
ARC
  5
2E0
330
370
100
AcDbEntity
  8
0
  6
Continuous
 62
     7
100
AcDbCircle
 10
-36.7770302727
 20
4.0398938889
 30
0.0
 40
0.5000000000000445
100
AcDbArc
 50
103.9623726353
 51
156.9715647175
  0
ARC
  5
2E1
330
370
100
AcDbEntity
  8
0
  6
Continuous
 62
     7
100
AcDbCircle
 10
-36.1798508146
 20
1.6380192679
 30
0.0
 40
2.974999999999995
100
AcDbArc
 50
74.4417793833
 51
103.9623726353
  0
ARC
  5
2E2
330
370
100
AcDbEntity
  8
0
  6
Continuous
 62
     7
100
AcDbCircle
 10
-35.3148496261
 20
4.7448501201
 30
0.0
 40
0.2499999999999989
100
AcDbArc
 50
254.4417793833
 51
329.4593230409001
  0
ARC
  5
2E3
330
370
100
AcDbEntity
  8
0
  6
Continuous
 62
     7
100
AcDbCircle
 10
-27.272753905
 20
0.0
 30
0.0
 40
9.087499999999025
100
AcDbArc
 50
143.0406769591
 51
149.4593230409
  0
ARC
  5
2E4
330
370
100
AcDbEntity
  8
0
  6
Continuous
 62
     7
100
AcDbCircle
 10
-34.7340006097
 20
5.6141521053
 30
0.0
 40
0.2499999999999885
100
AcDbArc
 50
323.0406769591
 51
38.0582206167
  0
ARC
  5
2E5
330
370
100
AcDbEntity
  8
0
  6
Continuous
 62
     7
100
AcDbCircle
 10
-32.1946847983
 20
7.6022416932
 30
0.0
 40
2.975000000000121
100
AcDbArc
 50
188.5376273647
 51
218.0582206167
  0
ARC
  5
2E6
330
370
100
AcDbEntity
  8
0
  6
Continuous
 62
     7
100
AcDbCircle
 10
-34.642258285
 20
7.2348059476
 30
0.0
 40
0.499999999999959
100
AcDbArc
 50
135.5284352825
 51
188.5376273647
  0
ARC
  5
2E7
330
370
100
AcDbEntity
  8
0
  6
Continuous
 62
     7
100
AcDbCircle
 10
-27.272753905
 20
0.0
 30
0.0
 40
10.82724609493211
100
AcDbArc
 50
134.4715647175
 51
135.5284352825
  0
ARC
  5
2E8
330
370
100
AcDbEntity
  8
0
  6
Continuous
 62
     7
100
AcDbCircle
 10
-34.5075598526
 20
7.36950438
 30
0.0
 40
0.500000000000007
100
AcDbArc
 50
81.4623726353
 51
134.4715647175
  0
ARC
  5
2E9
330
370
100
AcDbEntity
  8
0
  6
Continuous
 62
     7
100
AcDbCircle
 10
-34.8749955982
 20
4.9219308933
 30
0.0
 40
2.974999999999975
100
AcDbArc
 50
51.94177938329999
 51
81.4623726353
  0
ARC
  5
2EA
330
370
100
AcDbEntity
  8
0
  6
Continuous
 62
     7
100
AcDbCircle
 10
-32.8869060103
 20
7.4612467047
 30
0.0
 40
0.249999999999997
100
AcDbArc
 50
231.9417793833
 51
306.9593230409
  0
ARC
  5
2EB
330
370
100
AcDbEntity
  8
0
  6
Continuous
 62
     7
100
AcDbCircle
 10
-27.272753905
 20
0.0
 30
0.0
 40
9.087500000000373
100
AcDbArc
 50
120.5406769591
 51
126.9593230409
  0
ARC
  5
2EC
330
370
100
AcDbEntity
  8
0
  6
Continuous
 62
     7
100
AcDbCircle
 10
-32.0176040251
 20
8.0420957211
 30
0.0
 40
0.2500000000000002
100
AcDbArc
 50
300.5406769591
 51
15.5582206167
  0
ARC
  5
2ED
330
370
100
AcDbEntity
  8
0
  6
Continuous
 62
     7
100
AcDbCircle
 10
-28.9107731729
 20
8.9070969096
 30
0.0
 40
2.974999999999979
100
AcDbArc
 50
166.0376273647
 51
195.5582206167
  0
ARC
  5
2EE
330
370
100
AcDbEntity
  8
0
  6
Continuous
 62
     7
100
AcDbCircle
 10
-31.3126477939
 20
9.5042763677
 30
0.0
 40
0.5000000000000362
100
AcDbArc
 50
113.0284352825
 51
166.0376273647
  0
ARC
  5
2EF
330
370
100
AcDbEntity
  8
0
  6
Continuous
 62
     7
100
AcDbCircle
 10
-27.272753905
 20
0.0
 30
0.0
 40
10.82724609503085
100
AcDbArc
 50
111.9715647175
 51
113.0284352825
  0
ARC
  5
2F0
330
370
100
AcDbEntity
  8
0
  6
Continuous
 62
     7
100
AcDbCircle
 10
-31.1366558107
 20
9.577174634
 30
0.0
 40
0.5000000000000234
100
AcDbArc
 50
58.9623726353
 51
111.9715647175
  0
ARC
  5
2F1
330
370
100
AcDbEntity
  8
0
  6
Continuous
 62
     7
100
AcDbCircle
 10
-32.4127679984
 20
7.4565231576
 30
0.0
 40
2.974999999999929
100
AcDbArc
 50
29.4417793833
 51
58.9623726353
  0
ARC
  5
2F2
330
370
100
AcDbEntity
  8
0
  6
Continuous
 62
     7
100
AcDbCircle
 10
-29.6042586288
 20
9.041736115
 30
0.0
 40
0.2500000000000026
100
AcDbArc
 50
209.4417793833
 51
284.4593230409
  0
ARC
  5
2F3
330
370
100
AcDbEntity
  8
0
  6
Continuous
 62
     7
100
AcDbCircle
 10
-27.272753905
 20
0.0
 30
0.0
 40
9.087500000000514
100
AcDbArc
 50
98.0406769591
 51
104.4593230409
  0
ARC
  5
2F4
330
370
100
AcDbEntity
  8
0
  6
Continuous
 62
     7
100
AcDbCircle
 10
-28.5788470218
 20
9.2457031653
 30
0.0
 40
0.2500000000000083
100
AcDbArc
 50
278.0406769591
 51
353.0582206167
  0
ARC
  5
2F5
330
370
100
AcDbEntity
  8
0
  6
Continuous
 62
     7
100
AcDbCircle
 10
-25.3774879627
 20
8.8559273646
 30
0.0
 40
2.975000000000049
100
AcDbArc
 50
143.5376273647
 51
173.0582206167
  0
ARC
  5
2F6
330
370
100
AcDbEntity
  8
0
  6
Continuous
 62
     7
100
AcDbCircle
 10
-27.3680000799
 20
10.3268068672
 30
0.0
 40
0.500000000000052
100
AcDbArc
 50
90.52843528250001
 51
143.5376273647
  0
ARC
  5
2F7
330
370
100
AcDbEntity
  8
0
  6
Continuous
 62
     7
100
AcDbCircle
 10
-27.272753905
 20
0.0000000001
 30
0.0
 40
10.82724609493372
100
AcDbArc
 50
89.47156471749999
 51
90.52843528250001
  0
ARC
  5
2F8
330
370
100
AcDbEntity
  8
0
  6
Continuous
 62
     7
100
AcDbCircle
 10
-27.1775077301
 20
10.3268068672
 30
0.0
 40
0.5000000000000144
100
AcDbArc
 50
36.4623726353
 51
89.47156471749999
  0
ARC
  5
2F9
330
370
100
AcDbEntity
  8
0
  6
Continuous
 62
     7
100
AcDbCircle
 10
-29.1680198473
 20
8.8559273646
 30
0.0
 40
2.975000000000058
100
AcDbArc
 50
6.9417793833
 51
36.4623726353
  0
ARC
  5
2FA
330
370
100
AcDbEntity
  8
0
  6
Continuous
 62
     7
100
AcDbCircle
 10
-25.9666607882
 20
9.2457031653
 30
0.0
 40
0.2499999999999963
100
AcDbArc
 50
186.9417793833
 51
261.9593230409
  0
ARC
  5
2FB
330
370
100
AcDbEntity
  8
0
  6
Continuous
 62
     7
100
AcDbCircle
 10
-27.272753905
 20
0.0
 30
0.0
 40
9.087500000000539
100
AcDbArc
 50
75.5406769591
 51
81.9593230409
  0
ARC
  5
2FC
330
370
100
AcDbEntity
  8
0
  6
Continuous
 62
     7
100
AcDbCircle
 10
-24.9412491812
 20
9.041736115
 30
0.0
 40
0.2500000000000128
100
AcDbArc
 50
255.5406769591
 51
330.5582206167001
  0
ARC
  5
2FD
330
370
100
AcDbEntity
  8
0
  6
Continuous
 62
     7
100
AcDbCircle
 10
-22.1327398116
 20
7.4565231576
 30
0.0
 40
2.974999999999948
100
AcDbArc
 50
121.0376273647
 51
150.5582206167
  0
ARC
  5
2FE
330
370
100
AcDbEntity
  8
0
  6
Continuous
 62
     7
100
AcDbCircle
 10
-23.4088519993
 20
9.577174634
 30
0.0
 40
0.5000000000000291
100
AcDbArc
 50
68.0284352825
 51
121.0376273647
  0
ARC
  5
2FF
330
370
100
AcDbEntity
  8
0
  6
Continuous
 62
     7
100
AcDbCircle
 10
-27.272753905
 20
0.0
 30
0.0
 40
10.82724609498404
100
AcDbArc
 50
66.9715647175
 51
68.0284352825
  0
ARC
  5
300
330
370
100
AcDbEntity
  8
0
  6
Continuous
 62
     7
100
AcDbCircle
 10
-23.2328600161
 20
9.5042763677
 30
0.0
 40
0.5000000000000053
100
AcDbArc
 50
13.9623726353
 51
66.9715647175
  0
ARC
  5
301
330
370
100
AcDbEntity
  8
0
  6
Continuous
 62
     7
100
AcDbCircle
 10
-25.6347346371
 20
8.9070969096
 30
0.0
 40
2.975000000000013
100
AcDbArc
 50
344.4417793832999
 51
13.9623726353
  0
ARC
  5
302
330
370
100
AcDbEntity
  8
0
  6
Continuous
 62
     7
100
AcDbCircle
 10
-22.5279037849
 20
8.0420957211
 30
0.0
 40
0.2499999999999944
100
AcDbArc
 50
164.4417793833
 51
239.4593230409
  0
ARC
  5
303
330
370
100
AcDbEntity
  8
0
  6
Continuous
 62
     7
100
AcDbCircle
 10
-27.272753905
 20
0.0
 30
0.0
 40
9.087499999999004
100
AcDbArc
 50
53.0406769591
 51
59.4593230409
  0
ARC
  5
304
330
370
100
AcDbEntity
  8
0
  6
Continuous
 62
     7
100
AcDbCircle
 10
-21.6586017997
 20
7.4612467047
 30
0.0
 40
0.2500000000000074
100
AcDbArc
 50
233.0406769591
 51
308.0582206167
  0
ARC
  5
305
330
370
100
AcDbEntity
  8
0
  6
Continuous
 62
     7
100
AcDbCircle
 10
-19.6705122118
 20
4.9219308933
 30
0.0
 40
2.975000000000025
100
AcDbArc
 50
98.5376273647
 51
128.0582206167
  0
ARC
  5
306
330
370
100
AcDbEntity
  8
0
  6
Continuous
 62
     7
100
AcDbCircle
 10
-20.0379479574
 20
7.36950438
 30
0.0
 40
0.4999999999999972
100
AcDbArc
 50
45.52843528250001
 51
98.5376273647
  0
ARC
  5
307
330
370
100
AcDbEntity
  8
0
  6
Continuous
 62
     7
100
AcDbCircle
 10
-27.272753905
 20
0.0
 30
0.0
 40
10.82724609498636
100
AcDbArc
 50
44.4715647175
 51
45.52843528250001
  0
ARC
  5
308
330
370
100
AcDbEntity
  8
0
  6
Continuous
 62
     7
100
AcDbCircle
 10
-19.903249525
 20
7.2348059476
 30
0.0
 40
0.4999999999999942
100
AcDbArc
 50
351.4623726353001
 51
44.4715647175
  0
ARC
  5
309
330
370
100
AcDbEntity
  8
0
  6
Continuous
 62
     7
100
AcDbCircle
 10
-22.3508230117
 20
7.6022416932
 30
0.0
 40
2.975000000000404
100
AcDbArc
 50
337.4259317543
 51
351.4623726353001
  0
ARC
  5
30A
330
370
100
AcDbEntity
  8
0
  6
Continuous
 62
     7
100
AcDbCircle
 10
-19.1420634293
 20
6.2682675772
 30
0.0
 40
0.5000000000000027
100
AcDbArc
 50
157.4259317543
 51
270.0
  0
ARC
  5
30B
330
370
100
AcDbEntity
  8
0
  6
Continuous
 62
     7
100
AcDbCircle
 10
-18.372753905
 20
6.7682675772
 30
0.0
 40
1.000000000000001
100
AcDbArc
 50
270.0
 51
0.0
  0
ARC
  5
30C
330
370
100
AcDbEntity
  8
0
  6
Continuous
 62
     7
100
AcDbCircle
 10
-16.372753905
 20
9.577246095
 30
0.0
 40
1.000000000000004
100
AcDbArc
 50
90.0
 51
180.0
  0
ARC
  5
30D
330
370
100
AcDbEntity
  8
0
  6
Continuous
 62
     7
100
AcDbCircle
 10
30.9111936092
 20
9.577246095
 30
0.0
 40
1.000000000000004
100
AcDbArc
 50
0.0
 51
90.0
  0
ARC
  5
30E
330
370
100
AcDbEntity
  8
0
  6
Continuous
 62
     7
100
AcDbCircle
 10
30.9111936092
 20
-2.585253905
 30
0.0
 40
1.0
100
AcDbArc
 50
270.0
 51
0.0
  0
ARC
  5
30F
330
370
100
AcDbEntity
  8
0
  6
Continuous
 62
     7
100
AcDbCircle
 10
11.972246095
 20
-4.585253905
 30
0.0
 40
0.9999999999999978
100
AcDbArc
 50
90.0
 51
180.0
  0
ARC
  5
310
330
370
100
AcDbEntity
  8
0
  6
Continuous
 62
     7
100
AcDbCircle
 10
9.972246095
 20
-9.577246095
 30
0.0
 40
1.000000000000005
100
AcDbArc
 50
270.0
 51
0.0
  0
ARC
  5
311
330
370
100
AcDbEntity
  8
0
  6
Continuous
 62
     7
100
AcDbCircle
 10
-16.372753905
 20
-9.577246095
 30
0.0
 40
1.000000000000004
100
AcDbArc
 50
180.0
 51
270.0
  0
ARC
  5
312
330
370
100
AcDbEntity
  8
0
  6
Continuous
 62
     7
100
AcDbCircle
 10
-27.272753905
 20
0.0
 30
0.0
 40
6.999999999999853
100
AcDbArc
 50
143.1920875163
 51
261.7867892983
  0
ARC
  5
313
330
370
100
AcDbEntity
  8
0
  6
Continuous
 62
     7
100
AcDbCircle
 10
-27.272753905
 20
0.0
 30
0.0
 40
6.500000000000153
100
AcDbArc
 50
143.8270971996
 51
261.1501169016
  0
ARC
  5
314
330
370
100
AcDbEntity
  8
0
  6
Continuous
 62
     7
100
AcDbCircle
 10
-0.7942512663
 20
5.132246095
 30
0.0
 40
1.249999999999996
100
AcDbArc
 50
17.9882255699
 51
90.0
  0
ARC
  5
315
330
370
100
AcDbEntity
  8
0
  6
Continuous
 62
     7
100
AcDbCircle
 10
-1.8017512663
 20
4.382246095
 30
0.0
 40
0.5000000000000018
100
AcDbArc
 50
0.0
 51
90.0
  0
ARC
  5
316
330
370
100
AcDbEntity
  8
0
  6
Continuous
 62
     7
100
AcDbCircle
 10
-1.8017512663
 20
2.767246095
 30
0.0
 40
0.5000000000000013
100
AcDbArc
 50
270.0
 51
0.0
  0
ARC
  5
317
330
370
100
AcDbEntity
  8
0
  6
Continuous
 62
     7
100
AcDbCircle
 10
-0.7942512663
 20
2.082246095
 30
0.0
 40
1.250000000000005
100
AcDbArc
 50
270.0
 51
342.0117744300999
  0
ARC
  5
318
330
370
100
AcDbEntity
  8
0
  6
Continuous
 62
     7
100
AcDbCircle
 10
4.5471487337
 20
2.082246095
 30
0.0
 40
1.249999999999999
100
AcDbArc
 50
180.0
 51
270.0
  0
ARC
  5
319
330
370
100
AcDbEntity
  8
0
  6
Continuous
 62
     7
100
AcDbCircle
 10
5.5721487337
 20
2.767246095
 30
0.0
 40
0.5000000000000018
100
AcDbArc
 50
180.0
 51
270.0
  0
ARC
  5
31A
330
370
100
AcDbEntity
  8
0
  6
Continuous
 62
     7
100
AcDbCircle
 10
5.5721487337
 20
4.382246095
 30
0.0
 40
0.5000000000000382
100
AcDbArc
 50
90.0
 51
180.0
  0
ARC
  5
31B
330
370
100
AcDbEntity
  8
0
  6
Continuous
 62
     7
100
AcDbCircle
 10
4.5471487337
 20
5.132246095
 30
0.0
 40
1.249999999999998
100
AcDbArc
 50
90.0
 51
156.3481418246
  0
ARC
  5
31C
330
370
100
AcDbEntity
  8
0
  6
Continuous
 62
     7
100
AcDbCircle
 10
15.8215987337
 20
0.591696095
 30
0.0
 40
0.3669500000000099
100
AcDbArc
 50
270.0
 51
0.0
  0
ARC
  5
31D
330
370
100
AcDbEntity
  8
0
  6
Continuous
 62
     7
100
AcDbCircle
 10
16.5935487337
 20
0.222246095
 30
0.0
 40
1.482500000000032
100
AcDbArc
 50
270.0
 51
330.3897236591
  0
ARC
  5
31E
330
370
100
AcDbEntity
  8
0
  6
Continuous
 62
     7
100
AcDbCircle
 10
20.2074436092
 20
2.767246095
 30
0.0
 40
0.4999999999999929
100
AcDbArc
 50
180.0
 51
270.0
  0
ARC
  5
31F
330
370
100
AcDbEntity
  8
0
  6
Continuous
 62
     7
100
AcDbCircle
 10
20.2074436092
 20
4.382246095
 30
0.0
 40
0.4999999999997691
100
AcDbArc
 50
90.0
 51
180.0
  0
ARC
  5
320
330
370
100
AcDbEntity
  8
0
  6
Continuous
 62
     7
100
AcDbCircle
 10
19.3411936092
 20
5.034746095
 30
0.0
 40
1.347499999999999
100
AcDbArc
 50
90.0
 51
159.8648131387
  0
ARC
  5
321
330
370
100
AcDbEntity
  8
0
  6
Continuous
 62
     7
100
AcDbCircle
 10
15.8635487337
 20
2.592246095
 30
0.0
 40
0.3250000000000011
100
AcDbArc
 50
270.0
 51
0.0
  0
ARC
  5
322
330
370
100
AcDbEntity
  8
0
  6
Continuous
 62
     7
100
AcDbCircle
 10
14.3060487337
 20
2.592246095
 30
0.0
 40
0.3249999999999975
100
AcDbArc
 50
180.0
 51
270.0
  0
ARC
  5
323
330
370
100
AcDbEntity
  8
0
  6
Continuous
 62
     7
100
AcDbCircle
 10
7.9471487337
 20
5.132246095
 30
0.0
 40
1.249999999999998
100
AcDbArc
 50
17.9882255699
 51
90.0
  0
ARC
  5
324
330
370
100
AcDbEntity
  8
0
  6
Continuous
 62
     7
100
AcDbCircle
 10
6.9396487337
 20
4.382246095
 30
0.0
 40
0.4999999999999849
100
AcDbArc
 50
0.0
 51
90.0
  0
ARC
  5
325
330
370
100
AcDbEntity
  8
0
  6
Continuous
 62
     7
100
AcDbCircle
 10
6.9396487337
 20
2.767246095
 30
0.0
 40
0.5000000000000009
100
AcDbArc
 50
270.0
 51
0.0
  0
ARC
  5
326
330
370
100
AcDbEntity
  8
0
  6
Continuous
 62
     7
100
AcDbCircle
 10
7.9471487337
 20
2.082246095
 30
0.0
 40
1.24999999999998
100
AcDbArc
 50
270.0
 51
342.0117744300999
  0
ARC
  5
327
330
370
100
AcDbEntity
  8
0
  6
Continuous
 62
     7
100
AcDbCircle
 10
13.6080487337
 20
2.346746095
 30
0.0
 40
1.514499999999998
100
AcDbArc
 50
180.0
 51
270.0
  0
ARC
  5
328
330
370
100
AcDbEntity
  8
0
  6
Continuous
 62
     7
100
AcDbCircle
 10
-27.272753905
 20
0.0
 30
0.0
 40
6.500000000000219
100
AcDbArc
 50
53.84988309840001
 51
69.6370818397
  0
ARC
  5
329
330
370
100
AcDbEntity
  8
0
  6
Continuous
 62
     7
100
AcDbCircle
 10
-27.272753905
 20
0.0
 30
0.0
 40
6.999999999999836
100
AcDbArc
 50
53.21321070169999
 51
126.7656649887
  0
ARC
  5
32A
330
370
100
AcDbEntity
  8
0
  6
Continuous
 62
     7
100
AcDbCircle
 10
-27.272753905
 20
0.0
 30
0.0
 40
6.4999999999999
100
AcDbArc
 50
110.3629181603
 51
126.1273295918
  0
ARC
  5
32B
330
370
100
AcDbEntity
  8
0
  6
Continuous
 62
     7
100
AcDbCircle
 10
7.407246095
 20
-7.012246095
 30
0.0
 40
1.239999999999999
100
AcDbArc
 50
270.0
 51
0.0
  0
ARC
  5
32C
330
370
100
AcDbEntity
  8
0
  6
Continuous
 62
     7
100
AcDbCircle
 10
7.407246095
 20
-6.0177251304
 30
0.0
 40
1.239999999999995
100
AcDbArc
 50
0.0
 51
90.0
  0
ARC
  5
32D
330
370
100
AcDbEntity
  8
0
  6
Continuous
 62
     7
100
AcDbCircle
 10
5.430496095
 20
-4.4654646481
 30
0.0
 40
0.3122604822937776
100
AcDbArc
 50
90.0
 51
270.0
  0
ARC
  5
32E
330
370
100
AcDbEntity
  8
0
  6
Continuous
 62
     7
100
AcDbCircle
 10
4.509746095
 20
-3.977246095
 30
0.0
 40
1.239999999999991
100
AcDbArc
 50
90.0
 51
162.6761818553
  0
ARC
  5
32F
330
370
100
AcDbEntity
  8
0
  6
Continuous
 62
     7
100
AcDbCircle
 10
2.142246095
 20
-3.977246095
 30
0.0
 40
1.239999999999991
100
AcDbArc
 50
17.3238181447
 51
90.0
  0
ARC
  5
330
330
370
100
AcDbEntity
  8
0
  6
Continuous
 62
     7
100
AcDbCircle
 10
1.123496095
 20
-4.6532041658
 30
0.0
 40
0.5
100
AcDbArc
 50
0.0
 51
90.0
  0
ARC
  5
331
330
370
100
AcDbEntity
  8
0
  6
Continuous
 62
     7
100
AcDbCircle
 10
1.123496095
 20
-6.327246095
 30
0.0
 40
0.5
100
AcDbArc
 50
270.0
 51
0.0
  0
ARC
  5
332
330
370
100
AcDbEntity
  8
0
  6
Continuous
 62
     7
100
AcDbCircle
 10
2.142246095
 20
-7.012246095
 30
0.0
 40
1.239999999999993
100
AcDbArc
 50
270.0
 51
0.0
  0
ARC
  5
333
330
370
100
AcDbEntity
  8
0
  6
Continuous
 62
     7
100
AcDbCircle
 10
4.509746095
 20
-4.9627251304
 30
0.0
 40
1.239999999999988
100
AcDbArc
 50
204.5947576268
 51
270.0
  0
ARC
  5
334
330
370
100
AcDbEntity
  8
0
  6
Continuous
 62
     7
100
AcDbCircle
 10
6.486496095
 20
-6.5149856127
 30
0.0
 40
0.3122604822938193
100
AcDbArc
 50
270.0
 51
90.0
  0
ARC
  5
335
330
370
100
AcDbEntity
  8
0
  6
Continuous
 62
     7
100
AcDbCircle
 10
-6.1067512663
 20
4.407246095
 30
0.0
 40
0.4824999999998587
100
AcDbArc
 50
90.0
 51
180.0
  0
ARC
  5
336
330
370
100
AcDbEntity
  8
0
  6
Continuous
 62
     7
100
AcDbCircle
 10
-4.1942512663
 20
2.082246095
 30
0.0
 40
1.250000000000003
100
AcDbArc
 50
180.0
 51
270.0
  0
ARC
  5
337
330
370
100
AcDbEntity
  8
0
  6
Continuous
 62
     7
100
AcDbCircle
 10
-3.1692512663
 20
2.767246095
 30
0.0
 40
0.5000000000000018
100
AcDbArc
 50
180.0
 51
270.0
  0
ARC
  5
338
330
370
100
AcDbEntity
  8
0
  6
Continuous
 62
     7
100
AcDbCircle
 10
-3.1692512663
 20
4.382246095
 30
0.0
 40
0.5000000000000027
100
AcDbArc
 50
90.0
 51
180.0
  0
ARC
  5
339
330
370
100
AcDbEntity
  8
0
  6
Continuous
 62
     7
100
AcDbCircle
 10
-4.1942512663
 20
5.132246095
 30
0.0
 40
1.249999999999989
100
AcDbArc
 50
90.0
 51
160.3901893111
  0
ARC
  5
33A
330
370
100
AcDbEntity
  8
0
  6
Continuous
 62
     7
100
AcDbCircle
 10
-6.8509738658
 20
4.8614686945
 30
0.0
 40
1.520777400494757
100
AcDbArc
 50
90.0
 51
155.0881910301
  0
ARC
  5
33B
330
370
100
AcDbEntity
  8
0
  6
Continuous
 62
     7
100
AcDbCircle
 10
-9.840253905
 20
6.642246095
 30
0.0
 40
1.609999999999998
100
AcDbArc
 50
0.0
 51
90.0
  0
ARC
  5
33C
330
370
100
AcDbEntity
  8
0
  6
Continuous
 62
     7
100
AcDbCircle
 10
-10.847753905
 20
6.152246095
 30
0.0
 40
0.5000000000000036
100
AcDbArc
 50
0.0
 51
90.0
  0
ARC
  5
33D
330
370
100
AcDbEntity
  8
0
  6
Continuous
 62
     7
100
AcDbCircle
 10
-10.847753905
 20
5.567246095
 30
0.0
 40
0.5000000000000036
100
AcDbArc
 50
270.0
 51
0.0
  0
ARC
  5
33E
330
370
100
AcDbEntity
  8
0
  6
Continuous
 62
     7
100
AcDbCircle
 10
-9.840253905
 20
5.067246095
 30
0.0
 40
1.610000000000006
100
AcDbArc
 50
270.0
 51
335.7990669046
  0
ARC
  5
33F
330
370
100
AcDbEntity
  8
0
  6
Continuous
 62
     7
100
AcDbCircle
 10
25.7811936092
 20
2.520007016
 30
0.0
 40
0.2527609209753852
100
AcDbArc
 50
107.5
 51
270.0
  0
ARC
  5
340
330
370
100
AcDbEntity
  8
0
  6
Continuous
 62
     7
100
AcDbCircle
 10
26.0284326882
 20
4.382246095
 30
0.0
 40
0.4999999999999964
100
AcDbArc
 50
90.0
 51
180.0
  0
ARC
  5
341
330
370
100
AcDbEntity
  8
0
  6
Continuous
 62
     7
100
AcDbCircle
 10
25.0411936092
 20
5.034746095
 30
0.0
 40
1.347500000000001
100
AcDbArc
 50
90.0
 51
164.7417709281
  0
ARC
  5
342
330
370
100
AcDbEntity
  8
0
  6
Continuous
 62
     7
100
AcDbCircle
 10
22.4411936092
 20
5.034746095
 30
0.0
 40
1.347500000000019
100
AcDbArc
 50
15.2582290719
 51
90.0
  0
ARC
  5
343
330
370
100
AcDbEntity
  8
0
  6
Continuous
 62
     7
100
AcDbCircle
 10
21.5749436092
 20
4.382246095
 30
0.0
 40
0.5000000000000675
100
AcDbArc
 50
0.0
 51
90.0
  0
ARC
  5
344
330
370
100
AcDbEntity
  8
0
  6
Continuous
 62
     7
100
AcDbCircle
 10
21.5749436092
 20
2.767246095
 30
0.0
 40
0.5000000000000084
100
AcDbArc
 50
270.0
 51
0.0
  0
ARC
  5
345
330
370
100
AcDbEntity
  8
0
  6
Continuous
 62
     7
100
AcDbCircle
 10
22.4411936092
 20
2.179746095
 30
0.0
 40
1.347499999999993
100
AcDbArc
 50
270.0
 51
346.761034577
  0
ARC
  5
346
330
370
100
AcDbEntity
  8
0
  6
Continuous
 62
     7
100
AcDbCircle
 10
25.2161936092
 20
2.382246095
 30
0.0
 40
1.55
100
AcDbArc
 50
199.2529136728
 51
270.0
  0
ARC
  5
347
330
370
100
AcDbEntity
  8
0
  6
Continuous
 62
     7
100
AcDbCircle
 10
-7.020253905
 20
-7.012246095
 30
0.0
 40
1.240000000000008
100
AcDbArc
 50
204.5947576268
 51
270.0
  0
ARC
  5
348
330
370
100
AcDbEntity
  8
0
  6
Continuous
 62
     7
100
AcDbCircle
 10
-3.670253905
 20
-7.012246095
 30
0.0
 40
1.23999999999999
100
AcDbArc
 50
270.0
 51
342.6761818553
  0
ARC
  5
349
330
370
100
AcDbEntity
  8
0
  6
Continuous
 62
     7
100
AcDbCircle
 10
-1.302753905
 20
-7.012246095
 30
0.0
 40
1.239999999999991
100
AcDbArc
 50
197.3238181447
 51
270.0
  0
ARC
  5
34A
330
370
100
AcDbEntity
  8
0
  6
Continuous
 62
     7
100
AcDbCircle
 10
-0.255253905
 20
-6.327246095
 30
0.0
 40
0.5000000000000016
100
AcDbArc
 50
180.0
 51
270.0
  0
ARC
  5
34B
330
370
100
AcDbEntity
  8
0
  6
Continuous
 62
     7
100
AcDbCircle
 10
-0.255253905
 20
-4.6532041658
 30
0.0
 40
0.5
100
AcDbArc
 50
90.0
 51
180.0
  0
ARC
  5
34C
330
370
100
AcDbEntity
  8
0
  6
Continuous
 62
     7
100
AcDbCircle
 10
-4.546503905
 20
-6.498496095
 30
0.0
 40
0.3287500000000039
100
AcDbArc
 50
270.0
 51
0.0
  0
ARC
  5
34D
330
370
100
AcDbEntity
  8
0
  6
Continuous
 62
     7
100
AcDbCircle
 10
-6.144003905
 20
-6.498496095
 30
0.0
 40
0.3287500000000056
100
AcDbArc
 50
180.0
 51
270.0
  0
ARC
  5
34E
330
370
100
AcDbEntity
  8
0
  6
Continuous
 62
     7
100
AcDbCircle
 10
28.2386936092
 20
5.034746095
 30
0.0
 40
1.347500000000004
100
AcDbArc
 50
0.0
 51
90.0
  0
ARC
  5
34F
330
370
100
AcDbEntity
  8
0
  6
Continuous
 62
     7
100
AcDbCircle
 10
27.9539545302
 20
4.4377662863
 30
0.0
 40
0.4444798086561867
100
AcDbArc
 50
58.162371774
 51
90.0
  0
ARC
  5
350
330
370
100
AcDbEntity
  8
0
  6
Continuous
 62
     7
100
AcDbCircle
 10
-27.272753905
 20
0.0
 30
0.0
 40
6.500000000000282
100
AcDbArc
 50
278.8498830984
 51
36.1501169016
  0
ARC
  5
351
330
370
100
AcDbEntity
  8
0
  6
Continuous
 62
     7
100
AcDbCircle
 10
-27.272753905
 20
0.0
 30
0.0
 40
6.99999999999986
100
AcDbArc
 50
278.2132107017
 51
36.78678929830001
  0
ARC
  5
352
330
370
100
AcDbEntity
  8
0
  6
Continuous
 62
     7
100
AcDbCircle
 10
-27.272753905
 20
0.0
 30
0.0
 40
10.82724609496684
100
AcDbArc
 50
269.4715647175
 51
270.5284352825
  0
ENDSEC
  0
SECTION
  2
OBJECTS
  0
DICTIONARY
  5
360
330
0
100
AcDbDictionary
281
     1
  3
ACAD_DETAILVIEWSTYLE
350
3CE
  3
ACAD_GROUP
350
361
  3
ACAD_LAYOUT
350
36D
  3
ACAD_MATERIAL
350
37B
  3
ACAD_MLEADERSTYLE
350
3C2
  3
ACAD_MLINESTYLE
350
36A
  3
ACAD_PLOTSETTINGS
350
36C
  3
ACAD_PLOTSTYLENAME
350
362
  3
ACAD_SCALELIST
350
385
  3
ACAD_SECTIONVIEWSTYLE
350
3CF
  3
ACAD_TABLESTYLE
350
3C0
  3
ACAD_VISUALSTYLE
350
3A7
  3
ACDB_RECOMPOSE_DATA
350
3CA
  3
AcDbVariableDictionary
350
3C5
  3
APPDATA
350
3C4
  0
DICTIONARY
  5
3CE
102
{ACAD_REACTORS
330
360
102
}
330
360
100
AcDbDictionary
281
     1
  0
DICTIONARY
  5
361
102
{ACAD_REACTORS
330
360
102
}
330
360
100
AcDbDictionary
281
     1
  0
DICTIONARY
  5
36D
102
{ACAD_REACTORS
330
360
102
}
330
360
100
AcDbDictionary
281
     1
  3
Model
350
371
  3
Sheet 1
350
36F
  0
DICTIONARY
  5
37B
102
{ACAD_REACTORS
330
360
102
}
330
360
100
AcDbDictionary
281
     1
  3
ByBlock
350
37D
  3
ByLayer
350
37C
  3
Global
350
37E
  0
DICTIONARY
  5
3C2
102
{ACAD_REACTORS
330
360
102
}
330
360
100
AcDbDictionary
281
     1
  3
Standard
350
3C3
  0
DICTIONARY
  5
36A
102
{ACAD_REACTORS
330
360
102
}
330
360
100
AcDbDictionary
281
     1
  3
Standard
350
36B
  0
DICTIONARY
  5
36C
102
{ACAD_REACTORS
330
360
102
}
330
360
100
AcDbDictionary
281
     1
  0
ACDBDICTIONARYWDFLT
  5
362
102
{ACAD_REACTORS
330
360
102
}
330
360
100
AcDbDictionary
281
     1
  3
Normal
350
363
100
AcDbDictionaryWithDefault
340
363
  0
DICTIONARY
  5
385
102
{ACAD_REACTORS
330
360
102
}
330
360
100
AcDbDictionary
281
     1
  3
A0
350
386
  3
A1
350
387
  3
A2
350
388
  3
A3
350
389
  3
A4
350
38A
  3
A5
350
38B
  3
A6
350
38C
  3
A7
350
38D
  3
A8
350
38E
  3
A9
350
38F
  3
B0
350
390
  3
B1
350
391
  3
B2
350
392
  3
B3
350
393
  3
B4
350
394
  3
B5
350
395
  3
B6
350
396
  3
B7
350
397
  3
B8
350
398
  3
B9
350
399
  3
C0
350
39A
  3
C1
350
39B
  3
C2
350
39C
  3
C3
350
39D
  3
C4
350
39E
  3
C5
350
39F
  3
C6
350
3A0
  3
C7
350
3A1
  3
C8
350
3A2
  3
C9
350
3A3
  3
D0
350
3A4
  3
D1
350
3A5
  3
D2
350
3A6
  0
DICTIONARY
  5
3CF
102
{ACAD_REACTORS
330
360
102
}
330
360
100
AcDbDictionary
281
     1
  0
DICTIONARY
  5
3C0
102
{ACAD_REACTORS
330
360
102
}
330
360
100
AcDbDictionary
281
     1
  3
Standard
350
3C1
  0
DICTIONARY
  5
3A7
102
{ACAD_REACTORS
330
360
102
}
330
360
100
AcDbDictionary
281
     1
  3
2dWireframe
350
3AC
  3
Basic
350
3AF
  3
Brighten
350
3B3
  3
ColorChange
350
3B7
  3
Conceptual
350
3B1
  3
Dim
350
3B2
  3
EdgeColorOff
350
3BA
  3
Facepattern
350
3B6
  3
Flat
350
3A8
  3
FlatWithEdges
350
3A9
  3
Gouraud
350
3AA
  3
GouraudWithEdges
350
3AB
  3
Hidden
350
3AE
  3
JitterOff
350
3B8
  3
Linepattern
350
3B5
  3
OverhangOff
350
3B9
  3
Realistic
350
3B0
  3
Shaded
350
3BF
  3
Shaded with edges
350
3BE
  3
Shades of Gray
350
3BB
  3
Sketchy
350
3BC
  3
Thicken
350
3B4
  3
Wireframe
350
3AD
  3
X-Ray
350
3BD
  0
XRECORD
  5
3CA
102
{ACAD_REACTORS
330
360
102
}
330
360
100
AcDbXrecord
280
     1
 90
        1
330
3C1
  0
DICTIONARY
  5
3C5
102
{ACAD_REACTORS
330
360
102
}
330
360
100
AcDbDictionary
281
     1
  3
CANNOSCALE
350
3C6
  3
CMLEADERSTYLE
350
3CC
  3
CTABLESTYLE
350
3CB
  3
MSLTSCALE
350
3CD
  0
DICTIONARY
  5
3C4
102
{ACAD_REACTORS
330
360
102
}
330
360
100
AcDbDictionary
281
     1
  0
LAYOUT
  5
371
102
{ACAD_REACTORS
330
36D
102
}
330
36D
100
AcDbPlotSettings
  1

  2
none_device
  4
Letter_(8.50_x_11.00_Inches)
  6

 40
6.35
 41
6.35
 42
6.35
 43
6.35
 44
215.9
 45
279.4
 46
0.0
 47
0.0
 48
0.0
 49
0.0
140
0.0
141
0.0
142
1.0
143
1.0
 70
  1712
 72
     0
 73
     0
 74
     0
  7

 75
     0
 76
     0
 77
     2
 78
   300
147
1.0
148
0.0
149
0.0
100
AcDbLayout
  1
Model
 70
     1
 71
     0
 10
0.0
 20
0.0
 11
12.0
 21
9.0
 12
0.0
 22
0.0
 32
0.0
 14
-38.0999999999577
 24
-10.82724609496684
 34
0.0
 15
31.91119360920001
 25
10.82724609503372
 35
0.0
146
0.0
 13
0.0
 23
0.0
 33
0.0
 16
1.0
 26
0.0
 36
0.0
 17
0.0
 27
1.0
 37
0.0
 76
     0
330
370
331
373
  0
LAYOUT
  5
36F
102
{ACAD_REACTORS
330
36D
102
}
330
36D
100
AcDbPlotSettings
  1

  2
none_device
  4

  6

 40
0.0
 41
0.0
 42
0.0
 43
0.0
 44
0.0
 45
0.0
 46
0.0
 47
0.0
 48
0.0
 49
0.0
140
0.0
141
0.0
142
1.0
143
1.0
 70
   688
 72
     0
 73
     0
 74
     5
  7

 75
    16
 76
     0
 77
     2
 78
   300
147
1.0
148
0.0
149
0.0
100
AcDbLayout
  1
Sheet 1
 70
     1
 71
     1
 10
0.0
 20
0.0
 11
0.0
 21
0.0
 12
0.0
 22
0.0
 32
0.0
 14
1.000000000000000E+20
 24
1.000000000000000E+20
 34
1.000000000000000E+20
 15
-1.000000000000000E+20
 25
-1.000000000000000E+20
 35
-1.000000000000000E+20
146
0.0
 13
0.0
 23
0.0
 33
0.0
 16
1.0
 26
0.0
 36
0.0
 17
0.0
 27
1.0
 37
0.0
 76
     0
330
36E
  0
MATERIAL
  5
37D
102
{ACAD_REACTORS
330
37B
102
}
330
37B
100
AcDbMaterial
  1
ByBlock
 72
     1
 94
      127
  0
MATERIAL
  5
37C
102
{ACAD_REACTORS
330
37B
102
}
330
37B
100
AcDbMaterial
  1
ByLayer
 72
     1
 94
      127
  0
MATERIAL
  5
37E
102
{ACAD_REACTORS
330
37B
102
}
330
37B
100
AcDbMaterial
  1
Global
 72
     1
 94
      127
  0
MLEADERSTYLE
  5
3C3
102
{ACAD_REACTORS
330
3C2
102
}
330
3C2
100
AcDbMLeaderStyle
170
     2
171
     1
172
     0
 90
        2
 40
0.0
 41
0.0
173
     1
 91
-1056964608
340
367
 92
       -2
290
     1
 42
0.09
291
     1
 43
0.36
  3
Standard
341
0
 44
0.18
300

342
365
174
     1
178
     1
175
     1
176
     0
 93
-1056964608
 45
0.18
292
     0
297
     0
 46
0.18
343
0
 94
-1056964608
 47
1.0
 49
1.0
140
1.0
293
     1
141
0.0
294
     1
177
     0
142
1.0
295
     0
296
     0
143
0.125
1001
ACAD_MLEADERVER
1070
     2
  0
MLINESTYLE
  5
36B
102
{ACAD_REACTORS
330
36A
102
}
330
36A
100
AcDbMlineStyle
  2
Standard
 70
     0
  3

 62
   256
 51
90.0
 52
90.0
 71
     2
 49
0.5
 62
   256
  6
BYLAYER
 49
-0.5
 62
   256
  6
BYLAYER
  0
ACDBPLACEHOLDER
  5
363
102
{ACAD_REACTORS
330
362
102
}
330
362
  0
SCALE
  5
386
102
{ACAD_REACTORS
330
385
102
}
330
385
100
AcDbScale
 70
     0
300
1:1
140
1.0
141
1.0
290
     1
  0
SCALE
  5
387
102
{ACAD_REACTORS
330
385
102
}
330
385
100
AcDbScale
 70
     0
300
1:2
140
1.0
141
2.0
290
     0
  0
SCALE
  5
388
102
{ACAD_REACTORS
330
385
102
}
330
385
100
AcDbScale
 70
     0
300
1:4
140
1.0
141
4.0
290
     0
  0
SCALE
  5
389
102
{ACAD_REACTORS
330
385
102
}
330
385
100
AcDbScale
 70
     0
300
1:5
140
1.0
141
5.0
290
     0
  0
SCALE
  5
38A
102
{ACAD_REACTORS
330
385
102
}
330
385
100
AcDbScale
 70
     0
300
1:8
140
1.0
141
8.0
290
     0
  0
SCALE
  5
38B
102
{ACAD_REACTORS
330
385
102
}
330
385
100
AcDbScale
 70
     0
300
1:10
140
1.0
141
10.0
290
     0
  0
SCALE
  5
38C
102
{ACAD_REACTORS
330
385
102
}
330
385
100
AcDbScale
 70
     0
300
1:16
140
1.0
141
16.0
290
     0
  0
SCALE
  5
38D
102
{ACAD_REACTORS
330
385
102
}
330
385
100
AcDbScale
 70
     0
300
1:20
140
1.0
141
20.0
290
     0
  0
SCALE
  5
38E
102
{ACAD_REACTORS
330
385
102
}
330
385
100
AcDbScale
 70
     0
300
1:30
140
1.0
141
30.0
290
     0
  0
SCALE
  5
38F
102
{ACAD_REACTORS
330
385
102
}
330
385
100
AcDbScale
 70
     0
300
1:40
140
1.0
141
40.0
290
     0
  0
SCALE
  5
390
102
{ACAD_REACTORS
330
385
102
}
330
385
100
AcDbScale
 70
     0
300
1:50
140
1.0
141
50.0
290
     0
  0
SCALE
  5
391
102
{ACAD_REACTORS
330
385
102
}
330
385
100
AcDbScale
 70
     0
300
1:100
140
1.0
141
100.0
290
     0
  0
SCALE
  5
392
102
{ACAD_REACTORS
330
385
102
}
330
385
100
AcDbScale
 70
     0
300
2:1
140
2.0
141
1.0
290
     0
  0
SCALE
  5
393
102
{ACAD_REACTORS
330
385
102
}
330
385
100
AcDbScale
 70
     0
300
4:1
140
4.0
141
1.0
290
     0
  0
SCALE
  5
394
102
{ACAD_REACTORS
330
385
102
}
330
385
100
AcDbScale
 70
     0
300
8:1
140
8.0
141
1.0
290
     0
  0
SCALE
  5
395
102
{ACAD_REACTORS
330
385
102
}
330
385
100
AcDbScale
 70
     0
300
10:1
140
10.0
141
1.0
290
     0
  0
SCALE
  5
396
102
{ACAD_REACTORS
330
385
102
}
330
385
100
AcDbScale
 70
     0
300
100:1
140
100.0
141
1.0
290
     0
  0
SCALE
  5
397
102
{ACAD_REACTORS
330
385
102
}
330
385
100
AcDbScale
 70
     0
300
1/128" = 1'-0"
140
0.0078125
141
12.0
290
     0
  0
SCALE
  5
398
102
{ACAD_REACTORS
330
385
102
}
330
385
100
AcDbScale
 70
     0
300
1/64" = 1'-0"
140
0.015625
141
12.0
290
     0
  0
SCALE
  5
399
102
{ACAD_REACTORS
330
385
102
}
330
385
100
AcDbScale
 70
     0
300
1/32" = 1'-0"
140
0.03125
141
12.0
290
     0
  0
SCALE
  5
39A
102
{ACAD_REACTORS
330
385
102
}
330
385
100
AcDbScale
 70
     0
300
1/16" = 1'-0"
140
0.0625
141
12.0
290
     0
  0
SCALE
  5
39B
102
{ACAD_REACTORS
330
385
102
}
330
385
100
AcDbScale
 70
     0
300
3/32" = 1'-0"
140
0.09375
141
12.0
290
     0
  0
SCALE
  5
39C
102
{ACAD_REACTORS
330
385
102
}
330
385
100
AcDbScale
 70
     0
300
1/8" = 1'-0"
140
0.125
141
12.0
290
     0
  0
SCALE
  5
39D
102
{ACAD_REACTORS
330
385
102
}
330
385
100
AcDbScale
 70
     0
300
3/16" = 1'-0"
140
0.1875
141
12.0
290
     0
  0
SCALE
  5
39E
102
{ACAD_REACTORS
330
385
102
}
330
385
100
AcDbScale
 70
     0
300
1/4" = 1'-0"
140
0.25
141
12.0
290
     0
  0
SCALE
  5
39F
102
{ACAD_REACTORS
330
385
102
}
330
385
100
AcDbScale
 70
     0
300
3/8" = 1'-0"
140
0.375
141
12.0
290
     0
  0
SCALE
  5
3A0
102
{ACAD_REACTORS
330
385
102
}
330
385
100
AcDbScale
 70
     0
300
1/2" = 1'-0"
140
0.5
141
12.0
290
     0
  0
SCALE
  5
3A1
102
{ACAD_REACTORS
330
385
102
}
330
385
100
AcDbScale
 70
     0
300
3/4" = 1'-0"
140
0.75
141
12.0
290
     0
  0
SCALE
  5
3A2
102
{ACAD_REACTORS
330
385
102
}
330
385
100
AcDbScale
 70
     0
300
1" = 1'-0"
140
1.0
141
12.0
290
     0
  0
SCALE
  5
3A3
102
{ACAD_REACTORS
330
385
102
}
330
385
100
AcDbScale
 70
     0
300
1-1/2" = 1'-0"
140
1.5
141
12.0
290
     0
  0
SCALE
  5
3A4
102
{ACAD_REACTORS
330
385
102
}
330
385
100
AcDbScale
 70
     0
300
3" = 1'-0"
140
3.0
141
12.0
290
     0
  0
SCALE
  5
3A5
102
{ACAD_REACTORS
330
385
102
}
330
385
100
AcDbScale
 70
     0
300
6" = 1'-0"
140
6.0
141
12.0
290
     0
  0
SCALE
  5
3A6
102
{ACAD_REACTORS
330
385
102
}
330
385
100
AcDbScale
 70
     0
300
1'-0" = 1'-0"
140
12.0
141
12.0
290
     0
  0
TABLESTYLE
  5
3C1
102
{ACAD_REACTORS
330
3C0
102
}
102
{ACAD_XDICTIONARY
360
3C7
102
}
330
3C0
100
AcDbTableStyle
  3
Standard
 70
     0
 71
     0
 40
0.06
 41
0.06
280
     0
281
     0
  7
STANDARD
140
0.18
170
     2
 62
     0
 63
   257
283
     0
 90
        4
 91
        0
  1

274
    -2
284
     1
 64
     0
275
    -2
285
     1
 65
     0
276
    -2
286
     1
 66
     0
277
    -2
287
     1
 67
     0
278
    -2
288
     1
 68
     0
279
    -2
289
     1
 69
     0
  7
STANDARD
140
0.25
170
     5
 62
     0
 63
   257
283
     0
 90
        4
 91
        0
  1

274
    -2
284
     1
 64
     0
275
    -2
285
     1
 65
     0
276
    -2
286
     1
 66
     0
277
    -2
287
     1
 67
     0
278
    -2
288
     1
 68
     0
279
    -2
289
     1
 69
     0
  7
STANDARD
140
0.18
170
     5
 62
     0
 63
   257
283
     0
 90
        4
 91
        0
  1

274
    -2
284
     1
 64
     0
275
    -2
285
     1
 65
     0
276
    -2
286
     1
 66
     0
277
    -2
287
     1
 67
     0
278
    -2
288
     1
 68
     0
279
    -2
289
     1
 69
     0
  0
VISUALSTYLE
  5
3AC
102
{ACAD_REACTORS
330
3A7
102
}
330
3A7
100
AcDbVisualStyle
  2
2dWireframe
 70
     4
 71
     0
 72
     2
 73
     0
 90
        0
 40
0.6
 41
30.0
 62
     5
 63
     7
421
 16777215
 74
     1
 91
        4
 64
     7
 65
   257
 75
     1
175
     1
 42
1.0
 92
        0
 66
   257
 43
1.0
 76
     1
 77
     6
 78
     2
 67
     7
 79
     5
170
     0
171
     0
290
     0
174
     0
 93
        1
 44
0.0
173
     0
291
     0
 45
0.0
  0
VISUALSTYLE
  5
3AF
102
{ACAD_REACTORS
330
3A7
102
}
330
3A7
100
AcDbVisualStyle
  2
Basic
 70
     7
 71
     1
 72
     0
 73
     1
 90
        0
 40
0.6
 41
30.0
 62
     5
 63
     7
421
 16777215
 74
     0
 91
        4
 64
     7
 65
   257
 75
     1
175
     1
 42
1.0
 92
        8
 66
     7
 43
1.0
 76
     1
 77
     6
 78
     2
 67
     7
 79
     5
170
     0
171
     0
290
     0
174
     0
 93
        1
 44
0.0
173
     0
291
     1
 45
0.0
  0
VISUALSTYLE
  5
3B3
102
{ACAD_REACTORS
330
3A7
102
}
330
3A7
100
AcDbVisualStyle
  2
Brighten
 70
    12
 71
     2
 72
     2
 73
     0
 90
        0
 40
0.6
 41
30.0
 62
     5
 63
     7
421
 16777215
 74
     1
 91
        4
 64
     7
 65
   257
 75
     1
175
     1
 42
1.0
 92
        8
 66
     7
 43
1.0
 76
     1
 77
     6
 78
     2
 67
     7
 79
     5
170
     0
171
     0
290
     0
174
     0
 93
        1
 44
50.0
173
     0
291
     1
 45
0.0
  0
VISUALSTYLE
  5
3B7
102
{ACAD_REACTORS
330
3A7
102
}
330
3A7
100
AcDbVisualStyle
  2
ColorChange
 70
    16
 71
     2
 72
     2
 73
     3
 90
        0
 40
0.6
 41
30.0
 62
     5
 63
     8
421
  8421504
 74
     1
 91
        4
 64
     7
 65
   257
 75
     1
175
     1
 42
1.0
 92
        8
 66
     8
424
  8421504
 43
1.0
 76
     1
 77
     6
 78
     2
 67
     7
 79
     5
170
     0
171
     0
290
     0
174
     0
 93
        1
 44
0.0
173
     0
291
     1
 45
0.0
  0
VISUALSTYLE
  5
3B1
102
{ACAD_REACTORS
330
3A7
102
}
330
3A7
100
AcDbVisualStyle
  2
Conceptual
 70
     9
 71
     3
 72
     2
 73
     0
 90
        0
 40
0.6
 41
30.0
 62
     5
 63
     7
421
 16777215
 74
     2
 91
        2
 64
     7
 65
   257
 75
     1
175
     1
 42
179.0
 92
        8
 66
     7
 43
1.0
 76
     1
 77
     6
 78
     2
 67
     7
 79
     3
170
     0
171
     0
290
     0
174
     0
 93
        1
 44
0.0
173
     0
291
     0
 45
0.0
  0
VISUALSTYLE
  5
3B2
102
{ACAD_REACTORS
330
3A7
102
}
330
3A7
100
AcDbVisualStyle
  2
Dim
 70
    11
 71
     2
 72
     2
 73
     0
 90
        0
 40
0.6
 41
30.0
 62
     5
 63
     7
421
 16777215
 74
     1
 91
        4
 64
     7
 65
   257
 75
     1
175
     1
 42
1.0
 92
        8
 66
     7
 43
1.0
 76
     1
 77
     6
 78
     2
 67
     7
 79
     5
170
     0
171
     0
290
     0
174
     0
 93
        1
 44
-50.0
173
     0
291
     1
 45
0.0
  0
VISUALSTYLE
  5
3BA
102
{ACAD_REACTORS
330
3A7
102
}
330
3A7
100
AcDbVisualStyle
  2
EdgeColorOff
 70
    22
 71
     2
 72
     2
 73
     0
 90
        0
 40
0.6
 41
30.0
 62
     5
 63
     7
421
 16777215
 74
     1
 91
        4
 64
     7
 65
   257
 75
     1
175
     1
 42
1.0
 92
        8
 66
     7
 43
1.0
 76
     1
 77
     6
 78
     2
 67
     7
 79
     5
170
     0
171
     0
290
     0
174
     0
 93
        1
 44
0.0
173
     0
291
     1
 45
0.0
  0
VISUALSTYLE
  5
3B6
102
{ACAD_REACTORS
330
3A7
102
}
330
3A7
100
AcDbVisualStyle
  2
Facepattern
 70
    15
 71
     2
 72
     2
 73
     0
 90
        0
 40
0.6
 41
30.0
 62
     5
 63
     7
421
 16777215
 74
     1
 91
        4
 64
     7
 65
   257
 75
     1
175
     1
 42
1.0
 92
        8
 66
     7
 43
1.0
 76
     1
 77
     6
 78
     2
 67
     7
 79
     5
170
     0
171
     0
290
     0
174
     0
 93
        1
 44
0.0
173
     0
291
     1
 45
0.0
  0
VISUALSTYLE
  5
3A8
102
{ACAD_REACTORS
330
3A7
102
}
330
3A7
100
AcDbVisualStyle
  2
Flat
 70
     0
 71
     2
 72
     1
 73
     1
 90
        2
 40
0.6
 41
30.0
 62
     5
 63
     7
421
 16777215
 74
     0
 91
        0
 64
     7
 65
   257
 75
     1
175
     1
 42
1.0
 92
        8
 66
     7
 43
1.0
 76
     1
 77
     6
 78
     2
 67
     7
 79
     5
170
     0
171
     0
290
     0
174
     0
 93
       13
 44
0.0
173
     0
291
     1
 45
0.0
  0
VISUALSTYLE
  5
3A9
102
{ACAD_REACTORS
330
3A7
102
}
330
3A7
100
AcDbVisualStyle
  2
FlatWithEdges
 70
     1
 71
     2
 72
     1
 73
     1
 90
        2
 40
0.6
 41
30.0
 62
     5
 63
     7
421
 16777215
 74
     1
 91
        0
 64
     7
 65
   257
 75
     1
175
     1
 42
1.0
 92
        0
 66
   257
 43
1.0
 76
     1
 77
     6
 78
     2
 67
     7
 79
     5
170
     0
171
     0
290
     0
174
     0
 93
       13
 44
0.0
173
     0
291
     1
 45
0.0
  0
VISUALSTYLE
  5
3AA
102
{ACAD_REACTORS
330
3A7
102
}
330
3A7
100
AcDbVisualStyle
  2
Gouraud
 70
     2
 71
     2
 72
     2
 73
     1
 90
        2
 40
0.6
 41
30.0
 62
     5
 63
     7
421
 16777215
 74
     0
 91
        0
 64
     7
 65
   257
 75
     1
175
     1
 42
1.0
 92
        0
 66
     7
 43
1.0
 76
     1
 77
     6
 78
     2
 67
     7
 79
     5
170
     0
171
     0
290
     0
174
     0
 93
       13
 44
0.0
173
     0
291
     1
 45
0.0
  0
VISUALSTYLE
  5
3AB
102
{ACAD_REACTORS
330
3A7
102
}
330
3A7
100
AcDbVisualStyle
  2
GouraudWithEdges
 70
     3
 71
     2
 72
     2
 73
     1
 90
        2
 40
0.6
 41
30.0
 62
     5
 63
     7
421
 16777215
 74
     1
 91
        0
 64
     7
 65
   257
 75
     1
175
     1
 42
1.0
 92
        0
 66
   257
 43
1.0
 76
     1
 77
     6
 78
     2
 67
     7
 79
     5
170
     0
171
     0
290
     0
174
     0
 93
       13
 44
0.0
173
     0
291
     1
 45
0.0
  0
VISUALSTYLE
  5
3AE
102
{ACAD_REACTORS
330
3A7
102
}
330
3A7
100
AcDbVisualStyle
  2
Hidden
 70
     6
 71
     1
 72
     2
 73
     2
 90
        0
 40
0.6
 41
30.0
 62
     5
 63
     7
421
 16777215
 74
     2
 91
        2
 64
     7
 65
   257
 75
     2
175
     1
 42
40.0
 92
        0
 66
   257
 43
1.0
 76
     1
 77
     6
 78
     2
 67
     7
 79
     3
170
     0
171
     0
290
     0
174
     0
 93
        1
 44
0.0
173
     0
291
     0
 45
0.0
  0
VISUALSTYLE
  5
3B8
102
{ACAD_REACTORS
330
3A7
102
}
330
3A7
100
AcDbVisualStyle
  2
JitterOff
 70
    20
 71
     2
 72
     2
 73
     0
 90
        0
 40
0.6
 41
30.0
 62
     5
 63
     7
421
 16777215
 74
     1
 91
        4
 64
     7
 65
   257
 75
     1
175
     1
 42
1.0
 92
       10
 66
     7
 43
1.0
 76
     1
 77
     6
 78
     2
 67
     7
 79
     5
170
     0
171
     0
290
     0
174
     0
 93
        1
 44
0.0
173
     0
291
     1
 45
0.0
  0
VISUALSTYLE
  5
3B5
102
{ACAD_REACTORS
330
3A7
102
}
330
3A7
100
AcDbVisualStyle
  2
Linepattern
 70
    14
 71
     2
 72
     2
 73
     0
 90
        0
 40
0.6
 41
30.0
 62
     5
 63
     7
421
 16777215
 74
     1
 91
        4
 64
     7
 65
   257
 75
     7
175
     7
 42
1.0
 92
        8
 66
     7
 43
1.0
 76
     1
 77
     6
 78
     2
 67
     7
 79
     5
170
     0
171
     0
290
     0
174
     0
 93
        1
 44
0.0
173
     0
291
     1
 45
0.0
  0
VISUALSTYLE
  5
3B9
102
{ACAD_REACTORS
330
3A7
102
}
330
3A7
100
AcDbVisualStyle
  2
OverhangOff
 70
    21
 71
     2
 72
     2
 73
     0
 90
        0
 40
0.6
 41
30.0
 62
     5
 63
     7
421
 16777215
 74
     1
 91
        4
 64
     7
 65
   257
 75
     1
175
     1
 42
1.0
 92
        9
 66
     7
 43
1.0
 76
     1
 77
     6
 78
     2
 67
     7
 79
     5
170
     0
171
     0
290
     0
174
     0
 93
        1
 44
0.0
173
     0
291
     1
 45
0.0
  0
VISUALSTYLE
  5
3B0
102
{ACAD_REACTORS
330
3A7
102
}
330
3A7
100
AcDbVisualStyle
  2
Realistic
 70
     8
 71
     2
 72
     3
 73
     0
 90
        2
 40
0.6
 41
30.0
 62
     5
 63
     7
421
 16777215
 74
     0
 91
        0
 64
     7
 65
   257
 75
     1
175
     1
 42
1.0
 92
        8
 66
   257
 43
1.0
 76
     1
 77
     6
 78
     2
 67
     7
 79
     3
170
     0
171
     0
290
     0
174
     0
 93
       13
 44
0.0
173
     0
291
     0
 45
0.0
  0
VISUALSTYLE
  5
3BF
102
{ACAD_REACTORS
330
3A7
102
}
330
3A7
100
AcDbVisualStyle
  2
Shaded
 70
    27
 71
     2
 72
     2
 73
     1
 90
        2
 40
0.6
 41
30.0
 62
     5
 63
     7
421
 16777215
 74
     0
 91
        4
 64
     7
 65
   257
 75
     1
175
     1
 42
1.0
 92
        8
 66
   257
 43
1.0
 76
     1
 77
     6
 78
     2
 67
     8
425
  7895160
 79
     3
170
     0
171
     0
290
     0
174
     0
 93
        5
 44
0.0
173
     0
291
     0
 45
0.0
  0
VISUALSTYLE
  5
3BE
102
{ACAD_REACTORS
330
3A7
102
}
330
3A7
100
AcDbVisualStyle
  2
Shaded with edges
 70
    26
 71
     2
 72
     2
 73
     1
 90
        2
 40
0.6
 41
30.0
 62
     5
 63
     7
421
 16777215
 74
     1
 91
       10
 64
     7
 65
   257
 75
     2
175
     1
 42
1.0
 92
        8
 66
   257
 43
1.0
 76
     1
 77
     6
 78
     2
 67
     7
 79
     3
170
     0
171
     0
290
     0
174
     0
 93
        5
 44
0.0
173
     0
291
     0
 45
0.0
  0
VISUALSTYLE
  5
3BB
102
{ACAD_REACTORS
330
3A7
102
}
330
3A7
100
AcDbVisualStyle
  2
Shades of Gray
 70
    23
 71
     2
 72
     2
 73
     3
 90
        0
 40
0.6
 41
30.0
 62
     5
 63
     7
421
 16777215
 74
     2
 91
        2
 64
     7
 65
     7
 75
     1
175
     1
 42
40.0
 92
        8
 66
     7
 43
1.0
 76
     1
 77
     6
 78
     2
 67
     7
 79
     3
170
     0
171
     0
290
     0
174
     0
 93
        1
 44
0.0
173
     0
291
     0
 45
0.0
  0
VISUALSTYLE
  5
3BC
102
{ACAD_REACTORS
330
3A7
102
}
330
3A7
100
AcDbVisualStyle
  2
Sketchy
 70
    24
 71
     1
 72
     2
 73
     2
 90
        0
 40
0.6
 41
30.0
 62
     5
 63
     7
421
 16777215
 74
     2
 91
        2
 64
     7
 65
     7
 75
     1
175
     1
 42
40.0
 92
       11
 66
     7
 43
1.0
 76
     1
 77
     6
 78
     2
 67
     7
 79
     6
170
     0
171
     0
290
     0
174
     0
 93
        1
 44
0.0
173
     0
291
     0
 45
0.0
  0
VISUALSTYLE
  5
3B4
102
{ACAD_REACTORS
330
3A7
102
}
330
3A7
100
AcDbVisualStyle
  2
Thicken
 70
    13
 71
     2
 72
     2
 73
     0
 90
        0
 40
0.6
 41
30.0
 62
     5
 63
     7
421
 16777215
 74
     1
 91
        4
 64
     7
 65
   257
 75
     1
175
     1
 42
1.0
 92
       12
 66
     7
 43
1.0
 76
     1
 77
     6
 78
     2
 67
     7
 79
     5
170
     0
171
     0
290
     0
174
     0
 93
        1
 44
0.0
173
     0
291
     1
 45
0.0
  0
VISUALSTYLE
  5
3AD
102
{ACAD_REACTORS
330
3A7
102
}
330
3A7
100
AcDbVisualStyle
  2
Wireframe
 70
     5
 71
     0
 72
     2
 73
     0
 90
        0
 40
0.6
 41
30.0
 62
     5
 63
     7
421
 16777215
 74
     1
 91
        4
 64
     7
 65
   257
 75
     1
175
     1
 42
1.0
 92
        0
 66
   257
 43
1.0
 76
     1
 77
     6
 78
     2
 67
     7
 79
     3
170
     0
171
     0
290
     0
174
     0
 93
        1
 44
0.0
173
     0
291
     0
 45
0.0
  0
VISUALSTYLE
  5
3BD
102
{ACAD_REACTORS
330
3A7
102
}
330
3A7
100
AcDbVisualStyle
  2
X-Ray
 70
    25
 71
     2
 72
     2
 73
     1
 90
        1
 40
0.5
 41
30.0
 62
     5
 63
     7
421
 16777215
 74
     1
 91
        0
 64
     7
 65
   257
 75
     1
175
     1
 42
1.0
 92
        8
 66
     7
 43
1.0
 76
     1
 77
     6
 78
     2
 67
     7
 79
     3
170
     0
171
     0
290
     0
174
     0
 93
       13
 44
0.0
173
     0
291
     0
 45
0.0
  0
DICTIONARYVAR
  5
3C6
102
{ACAD_REACTORS
330
3C5
102
}
330
3C5
100
DictionaryVariables
280
     0
  1
1:1
  0
DICTIONARYVAR
  5
3CC
102
{ACAD_REACTORS
330
3C5
102
}
330
3C5
100
DictionaryVariables
280
     0
  1
Standard
  0
DICTIONARYVAR
  5
3CB
102
{ACAD_REACTORS
330
3C5
102
}
330
3C5
100
DictionaryVariables
280
     0
  1
Standard
  0
DICTIONARYVAR
  5
3CD
102
{ACAD_REACTORS
330
3C5
102
}
330
3C5
100
DictionaryVariables
280
     0
  1
0
  0
DICTIONARY
  5
3C7
330
3C1
100
AcDbDictionary
280
     1
281
     1
  3
ACAD_ROUNDTRIP_2008_TABLESTYLE_CELLSTYLEMAP
360
3C8
  0
CELLSTYLEMAP
  5
3C8
102
{ACAD_REACTORS
330
3C7
102
}
330
3C7
100
AcDbCellStyleMap
 90
        3
300
CELLSTYLE
  1
TABLEFORMAT_BEGIN
 90
        5
170
     1
 91
        0
 92
    32768
 62
   257
 93
        1
300
CONTENTFORMAT
  1
CONTENTFORMAT_BEGIN
 90
        0
 91
        0
 92
        4
 93
        0
300

 40
0.0
140
1.0
 94
        5
 62
     0
340
365
144
0.25
309
CONTENTFORMAT_END
171
     1
301
MARGIN
  1
CELLMARGIN_BEGIN
 40
0.06
 40
0.06
 40
0.06
 40
0.06
 40
0.06
 40
0.06
309
CELLMARGIN_END
 94
        6
 95
        1
302
GRIDFORMAT
  1
GRIDFORMAT_BEGIN
 90
        0
 91
        1
 62
     0
 92
       -2
340
367
 93
        0
 40
0.045
309
GRIDFORMAT_END
 95
        2
302
GRIDFORMAT
  1
GRIDFORMAT_BEGIN
 90
        0
 91
        1
 62
     0
 92
       -2
340
367
 93
        0
 40
0.045
309
GRIDFORMAT_END
 95
        4
302
GRIDFORMAT
  1
GRIDFORMAT_BEGIN
 90
        0
 91
        1
 62
     0
 92
       -2
340
367
 93
        0
 40
0.045
309
GRIDFORMAT_END
 95
        8
302
GRIDFORMAT
  1
GRIDFORMAT_BEGIN
 90
        0
 91
        1
 62
     0
 92
       -2
340
367
 93
        0
 40
0.045
309
GRIDFORMAT_END
 95
       16
302
GRIDFORMAT
  1
GRIDFORMAT_BEGIN
 90
        0
 91
        1
 62
     0
 92
       -2
340
367
 93
        0
 40
0.045
309
GRIDFORMAT_END
 95
       32
302
GRIDFORMAT
  1
GRIDFORMAT_BEGIN
 90
        0
 91
        1
 62
     0
 92
       -2
340
367
 93
        0
 40
0.045
309
GRIDFORMAT_END
309
TABLEFORMAT_END
  1
CELLSTYLE_BEGIN
 90
        1
 91
        1
300
_TITLE
309
CELLSTYLE_END
300
CELLSTYLE
  1
TABLEFORMAT_BEGIN
 90
        5
170
     1
 91
        0
 92
        0
 62
   257
 93
        1
300
CONTENTFORMAT
  1
CONTENTFORMAT_BEGIN
 90
        0
 91
        0
 92
        4
 93
        0
300

 40
0.0
140
1.0
 94
        5
 62
     0
340
365
144
0.18
309
CONTENTFORMAT_END
171
     1
301
MARGIN
  1
CELLMARGIN_BEGIN
 40
0.06
 40
0.06
 40
0.06
 40
0.06
 40
0.06
 40
0.06
309
CELLMARGIN_END
 94
        6
 95
        1
302
GRIDFORMAT
  1
GRIDFORMAT_BEGIN
 90
        0
 91
        1
 62
     0
 92
       -2
340
367
 93
        0
 40
0.045
309
GRIDFORMAT_END
 95
        2
302
GRIDFORMAT
  1
GRIDFORMAT_BEGIN
 90
        0
 91
        1
 62
     0
 92
       -2
340
367
 93
        0
 40
0.045
309
GRIDFORMAT_END
 95
        4
302
GRIDFORMAT
  1
GRIDFORMAT_BEGIN
 90
        0
 91
        1
 62
     0
 92
       -2
340
367
 93
        0
 40
0.045
309
GRIDFORMAT_END
 95
        8
302
GRIDFORMAT
  1
GRIDFORMAT_BEGIN
 90
        0
 91
        1
 62
     0
 92
       -2
340
367
 93
        0
 40
0.045
309
GRIDFORMAT_END
 95
       16
302
GRIDFORMAT
  1
GRIDFORMAT_BEGIN
 90
        0
 91
        1
 62
     0
 92
       -2
340
367
 93
        0
 40
0.045
309
GRIDFORMAT_END
 95
       32
302
GRIDFORMAT
  1
GRIDFORMAT_BEGIN
 90
        0
 91
        1
 62
     0
 92
       -2
340
367
 93
        0
 40
0.045
309
GRIDFORMAT_END
309
TABLEFORMAT_END
  1
CELLSTYLE_BEGIN
 90
        2
 91
        1
300
_HEADER
309
CELLSTYLE_END
300
CELLSTYLE
  1
TABLEFORMAT_BEGIN
 90
        5
170
     1
 91
        0
 92
        0
 62
   257
 93
        1
300
CONTENTFORMAT
  1
CONTENTFORMAT_BEGIN
 90
        0
 91
        0
 92
        4
 93
        0
300

 40
0.0
140
1.0
 94
        2
 62
     0
340
365
144
0.18
309
CONTENTFORMAT_END
171
     1
301
MARGIN
  1
CELLMARGIN_BEGIN
 40
0.06
 40
0.06
 40
0.06
 40
0.06
 40
0.06
 40
0.06
309
CELLMARGIN_END
 94
        6
 95
        1
302
GRIDFORMAT
  1
GRIDFORMAT_BEGIN
 90
        0
 91
        1
 62
     0
 92
       -2
340
367
 93
        0
 40
0.045
309
GRIDFORMAT_END
 95
        2
302
GRIDFORMAT
  1
GRIDFORMAT_BEGIN
 90
        0
 91
        1
 62
     0
 92
       -2
340
367
 93
        0
 40
0.045
309
GRIDFORMAT_END
 95
        4
302
GRIDFORMAT
  1
GRIDFORMAT_BEGIN
 90
        0
 91
        1
 62
     0
 92
       -2
340
367
 93
        0
 40
0.045
309
GRIDFORMAT_END
 95
        8
302
GRIDFORMAT
  1
GRIDFORMAT_BEGIN
 90
        0
 91
        1
 62
     0
 92
       -2
340
367
 93
        0
 40
0.045
309
GRIDFORMAT_END
 95
       16
302
GRIDFORMAT
  1
GRIDFORMAT_BEGIN
 90
        0
 91
        1
 62
     0
 92
       -2
340
367
 93
        0
 40
0.045
309
GRIDFORMAT_END
 95
       32
302
GRIDFORMAT
  1
GRIDFORMAT_BEGIN
 90
        0
 91
        1
 62
     0
 92
       -2
340
367
 93
        0
 40
0.045
309
GRIDFORMAT_END
309
TABLEFORMAT_END
  1
CELLSTYLE_BEGIN
 90
        3
 91
        2
300
_DATA
309
CELLSTYLE_END
  0
ENDSEC
  0
EOF
